Técnicas de Guitarra: Execícios para Tocar Hammer-on

Olá pessoal tudo bem? Hoje pretendo disponibilizar um material bem interessante para quem quer tocar Hammer-on. Mas o que é hammer-on? Basicamente uma técnica para facilitar a sua tocabilidade.

Técnicas de Guitarra: Execícios para Tocar Hammer-on

Um hammer on ocorre quando você toca uma nota, e então você usa o outro dedo da mão que estiver tocando para reproduzir outra nota na mesma corda (geralmente 1,2 ou 3 casas acima). Tudo isso com uma única palhetada. Ou seja, você dá a palhetada e toca algumas notas diferentes na mesma corda. Quer uma dica? Fazer é muito mais fácil do que explicar 😀

Hammer on 1

Audio clip: Adobe Flash Player (version 9 or above) is required to play this audio clip. Download the latest version here. You also need to have JavaScript enabled in your browser.

Técnicas de Guitarra: Execícios para Tocar Hammer-on

Hammer on 2

Audio clip: Adobe Flash Player (version 9 or above) is required to play this audio clip. Download the latest version here. You also need to have JavaScript enabled in your browser.

hammer on tablatura

Hammer on em Riff Lento

Audio clip: Adobe Flash Player (version 9 or above) is required to play this audio clip. Download the latest version here. You also need to have JavaScript enabled in your browser.

exerícios para tocar hammer on na guitarra

Hammer on em Riff Rápido

Audio clip: Adobe Flash Player (version 9 or above) is required to play this audio clip. Download the latest version here. You also need to have JavaScript enabled in your browser.

Hammer on tab: exercício 1

|---------------------1h2-2h3-----------------------------------------|
|-----------------1h2---------2h3---------------------------------3h4-|
|-------------1h2-----------------2h3-------------------------3h4-----|
|---------1h2-------------------------2h3-----------------3h4---------|
|-----1h2---------------------------------2h3---------3h4-------------|
|-1h2-----------------------------------------2h3-3h4-----------------|

|-3h4-4h5-----------------------------------------5h6-6h7---------------|
|---------4h5---------------------------------5h6---------6h7-----------|
|-------------4h5-------------------------5h6-----------------6h7-------|
|-----------------4h5-----------------5h6-------------------------6h7---|
|---------------------4h5---------5h6---------------------------------6-|
|-------------------------4h5-5h6---------------------------------------|

Como executar:

  • Hammer on com o indicador para o dedo médio (i para m) … suba e desça
  • Hammer on com o dedo médio para o anelar (m para a) … suba e desça
  • Hammer on com o anelar para o dedo mínimo (a para x) … suba e desça

Hammer on tab: exercício 2

|---------------------1h3-2h5-----------------------------------------|
|-----------------1h2---------2h4---------------------------------3h4-|
|-------------1h3-----------------2h3-------------------------3h5-----|
|---------1h4-------------------------2h4-----------------3h6---------|
|-----1h3---------------------------------2h5---------3h5-------------|
|-1h2-----------------------------------------2h4-3h4-----------------|

|-3h5-4h7-----------------------------------------5h7-6h7---------------|
|---------4h6---------------------------------5h6---------6h8-----------|
|-------------4h5-------------------------5h7-----------------6h9-------|
|-----------------4h6-----------------5h8-------------------------6h8---|
|---------------------4h7---------5h7---------------------------------6-|
|-------------------------4h6-5h6---------------------------------------|

Como executar:

  • Hammer on com o indicador para o médio (i para m)
  • Hammer on com o indicador para o anelar (i para a)
  • Hammer on com o indicador para o mínimo (i para x) … suba e desça

Hammer on tab: exercício 3

|---------------------2h4-2h4-----------------------------------------|
|-----------------1h3---------3h5---------------------------------3h5-|
|-------------2h4-----------------2h4-------------------------4h6-----|
|---------1h3-------------------------3h5-----------------3h5---------|
|-----2h4---------------------------------2h4---------4h6-------------|
|-1h3-----------------------------------------3h5-3h5-----------------|

|-4h6-4h6-----------------------------------------6h8-6h8---------------|
|---------5h7---------------------------------5h7---------7h9-----------|
|-------------4h6-------------------------6h8-----------------6h8-------|
|-----------------5h7-----------------5h7-------------------------7h9---|
|---------------------4h6---------6h8---------------------------------6-|
|-------------------------5h7-5h7---------------------------------------|

Como executar:

  • Hammer on com o indicador para o médio (i para m)
  • Hammer on com o médio para o mínimo (m para x) … suba e desça

Hammer on tab: exercício 4

|-------------------------------------------------------------1h2h4-1h=|
|-------------------------------------------------1h2h4-1h3h4----------|
|-------------------------------------1h2h4-1h3h4----------------------|
|-------------------------1h2h4-1h3h4----------------------------------|
|-------------1h2h4-1h3h4----------------------------------------------|
|-1h2h4-1h3h4----------------------------------------------------------|

|-3h4-------------------------------------------------------------------|
|-----1h2h4-1h3h4-1h2h4-1h3h4-------------------------------------------|
|-----------------------------1h2h4-1h3h4-------------------------------|
|-----------------------------------------1h2h4-1h3h4-------------------|
|-----------------------------------------------------1h2h4-1h3h4-------|
|-----------------------------------------------------------------1h2h4-|

Como executar:

  • Hammer on com o indicador para o médio para o mínimo (i para m para x)
  • Hammer on com o indicador para o anelar para o mínimo (i para a para x) … suba e desça

É isso aí, espero que curtam a lição e pratiquem bastante. Abraço

Deixe uma resposta

O seu endereço de email não será publicado Campos obrigatórios são marcados *


+ dois = 11