Técnicas de Guitarra e Baixo: Palm Mute / Palm Muting

O Palm Mute ou Palm Muting é uma técnica amplamente utilizada que todo guitarrista deveria saber como fazer, independente de usar ou não, assim também como pode ser utilizado no baixo. O palm mute ou abafamento, literalmente interrompe o som das cordas que estão sendo tocadas. O Palm Mute surgiu do thrash metal dos anos 80 de bandas como Metallica, Megadeth, Slayer e Anthrax, e que depois foi disseminando para outros estilo como o Punk Rock utilizado pelo Green Day.

Como fazer o Palm Mute?

Basicamente é uma técnica simples, é só colocar parte  da palma da mão (daí o termo “palm mute”) sobre as cordas próximo da ponte e tocar as notas para dar aquele som característico dessa técnica. Lembrando que a mão direita não pode ficar nem muito próxima nem muito longe da ponte, se não a técnica vai falhar.

Vejamos aqui nesta foto:

palm mute

 

 

 

 

 

 

 

A notação de tablatura para o palm mute ou palm muting é ‘P.M’ colocado acima da tablatura.

palm mute

 

 

 

Observe que o Palm Mute está acima dos dois acordes.  Isso significa que apenas os dois primeiros acordes devem ser silenciados ou aplicados com o Palm Mute, e os outros devem soar normalmente.

Ouça essa tablatura sendo tocada: Palm Mute (mp3)

Ok, agora que já temos uma maior compreensão de como fazer o Palm Mute, vamos tocâ-lo em outras atmosferas da música, como em melodias e solos! Vamos ao trabalho, lembrando que a dificuldade vai aumentando conforme vier outras tabs.

(PM = palm mute)
(fb = full bend)
(p = pull out)
(h = hammer on)

1 – Palm Mute nas Melodias:

Entá aqui umas fáceis melodias para começar a tocar, tome cuidado com as notas livres! Toque todas as notas dando a palhetada para baixo usando o downstroke (batida/ataque para baixo) com o mesmo sincronismo.

Riff a)

   PM  PM      PM  PM      PM  PM      PM  PM      PM  PM
||---------------------------------------------------------|
||---------1-----------1-----------1-----------------------|
||---------------------------------------------------------|
||-----2-----------2-----------0---------------3-----------|
||-0---------------------------------------3-----------2---|
||-------------3-----------2-----------1-----------0-------| 

  PM  PM      PM  PM      PM  PM      PM  PM
|---------------------------------------------------------||
|---------1-----------1-----------1-----------------------||
|---------------------------------------------------------||
|-----2-----------2-----------0---------------3---2-------||
|-0---------------------------------------3-------2-------||
|-------------3-----------2-----------1-----------0-------||

 

Riff b)

   PM  PM          PM  PM          PM  PM          PM  PM
||---------1---0---------------------------1---0---------------|
||-------------------------1---3---------------------------3---|
||-----2-----------------------------------------------0-------|
||-0-------------------2---------------3-----------------------|
||-----------------0---------------1---------------------------|
||-------------------------------------------------3-----------|

  PM  PM          PM  PM          PM  PM          PM  PM
|---------1---0---------------------------1---0---------------||
|-------------------------1---3---------------------------8---||
|-----2-----------------------------------------------7-------||
|-0-------------------2---------------3-----------------------||
|-----------------0---------------1---------------------------||
|-------------------------------------------------8-----------||

 

2 – Palm Mute em Escala:

Agora um riff mais complexo, use palhetada alternada, toque mais rápido, mas tome cuidado com o sincronismo.

  PM PM PM          PM PM PM          PM PM PM
||-------------------------------------------------------
||-------------------------------------------------------
||----------------------------------------------15-17-19-
||----------------------------15-17-19-15-17-19----------
||----------15-17-19-15-17-19----------------------------
||-15-17-19----------------------------------------------  

  PM PM PM          PM PM PM          PM PM PM
----------------------------17-18-20-17-18-20-20fb-----||
-15-17-19-17-18-20-17-18-20----------------------------||
-------------------------------------------------------||
-------------------------------------------------------||
-------------------------------------------------------||
-------------------------------------------------------||

3 – Bending e Palm Mute:

Esse Riff é usado em vários solos, mas com algumas alterações, e tente tocar cada vez mais rápido (todas as notas têm um mesmo intervalo de tempo).

                 PM PM               PM PM
||-----------------------------------------
||-----------------------------------------
||-14fb-12-14-12-------14fb-12-14-12-------
||---------------14-12---------------14-12-
||-----------------------------------------
||-----------------------------------------  

                PM PM PM PM PM PM PM
-----------------------------------------||
-----------------------------------------||
-14fb-12-14-12---------------------------||
---------------14-12---------------------||
---------------------14-12---------------||
---------------------------15-12-15-12---||

4 – Palm Mute nas  Notas Abertas

Aqui mais um rápido riff, desta vez você terá que dar o palm mute em algumas notas abertas enquanto toca o solo:

PM PM       PM PM       PM PM      PM PM
|| ------------------------------------------------
|| ------------------------------------------------
||.-14p12-0--0—-11h12-0—-0--15p14-0--0—12h14-0--0--
||.------------------------------------------------
|| ------------------------------------------------
|| ------------------------------------------------  

       PM PM       PM PM       PM PM      PM PM
------------------------------------------------ ||
------------------------------------------------ ||
-17p15-0--0—-15p14-0—-0--14p12-0--0—11h12-0--0--.||
------------------------------------------------.||
------------------------------------------------ ||
------------------------------------------------ ||

5 – Mudanças Rápidas!

Aqui está outro riff, use o downstroke como técnica, é um pouco complexo mas nem tanto, com a prática fica melhor:

 PM PM    PM PM    PM PM    PM PM
|| -------------------------------------
|| -------15-------13-------12-------13-
||.----16-------14-------13-------14----
||.-17-------15-------12-------15-------
|| -------------------------------------
|| -------------------------------------  

 PM PM    PM PM    PM PM    PM PM
------------------------------------- ||
-------15-------17-------19-------17- ||
----16-------18-------20-------18----.||
-17-------19-------21-------19-------.||
------------------------------------- ||
------------------------------------- ||

6 – Teste Final

É um bom e difícil riff, toque ele usando de novo o downstroke como técnica, ele pode ser simples sem usar o palm mute, mas com o palm mute fica muito melhor.

  PM  PM  PM      PM  PM  PM  PM  PM
|| -----------------------------------------
|| -----------------------------------------
||.-------------12----------------------14--
||.-12--14--15------15--14--12--14--15------
|| -----------------------------------------
|| -----------------------------------------  

 PM  PM  PM      PM  PM  PM  PM  PM
----------------------------------------- ||
-------------11----------------------13-- ||
-----------------------------------------.||
-12--14--15------15--14--12--14--15------.||
----------------------------------------- ||
----------------------------------------- ||

Fiquem ai com mais 2 vídeos.

Palm  Mute no Baixo

Palm Mute na Guitarra

Então é isso, espero que todo mundo que ler esse artigo possa entender bem de como se faz essa interessante técnica chamada de Palm mute.

Deixe uma resposta

O seu endereço de email não será publicado Campos obrigatórios são marcados *


dois × 9 =