Tablatura Pink Floyd Wish You Were Here

Olá pessoal, mais uma ajuda ai com Tablatura Pink Floyd: Wish you were here, sem dúvidas uma das músicas mais bonitas do século passado, então vou fazer esta pequena contribuição para vocês, pois eu vejo o interesse de várias pessoal em saber tocar essa música. Eu substiui o Solo 2 com um ritmo de guitarra porque é o jeito com que eu toco a música e soa decentemente, gostaria de encorajar outros a fazerem o mesmo a não ser que você seja tão Pro em bending acústico quanto David Gilmore.

Tablatura Pink Floyd

Key:

h - hammer on
p - pull off
b - bend string up
/ - slide
Intro:		(Pule a primeira nota Exceto nesta repetição):

  	Toque algumas vezes
e---------------------3-------------------3---|
B---------------------3-------------------3---|
G---------------------0-------0-----------0---|
D-------------0--2----2----2-----2--0-----0---|   * 2
A------0h2------------0-------------------2---|
E---3-----------------x-------------------3---|

(Pule a primeira nota Exceto na repetição):

Toque  algumas vezes

e---------------------3-------------------3---|

B---------------------3-------------------3---|

G---------------------0-------------------2---|

D-------------0--2----2----2--0-----------2---|   * 2

A------0h2------------0----------2--0-----0---|

E---3-----------------x-------------------0---|

Toque  algumas vezes

e-----------------3---|

B-----------------3---|

G-----------------0---|

D-----------------0---|

A---0—2p0------2--2---|

E---------3-3—-3--3---|
(Violão 1 continue a tocar a intro atrás do solo do Violão 2).
Solo: (Segundo Violão)
e----------------------------------------------------------|

B----------3---5---0---3-----0-----------------------------|

G-----2/4-------------------------2---0--------------------|

D------------------------------------------0---------0---0-|

A-----------------------------------------------1/2--------|

E----------------------------------------------------------|
e----3/5-5/3-----------------------------------------------|

B----3/5-5/3----3/5-5/3---------3/5-5/3---3---(/0)---------|

G---------------2/4-4/2----0----2/4-4/2p0-0----------------|

D----------------------------------------------------------|

A----------------------------------------------------------|

E----------------------------------------------------------|
e-------------------------------------------------------------------|

B----------3---0---5----5b---0----3--------------3-----5------------|

G----2/4------------------------------2----4b----------------4b---2-|

D-------------------------------------------------------------------|

A-------------------------------------------------------------------|

E-------------------------------------------------------------------|
e-------------------------------------------------------------------|

B---------3----0----5-----5b-----5---3--5---------------------------|

G----2/4------------------------------------2-------4b----2---------|

D-------------------------------------------------------------------|

A-------------------------------------------------------------------|

E-------------------------------------------------------------------|
(Fim do Solo).
Acordes usados no resto da canção:

C     D    Am     G

e--0--|--2--|--0--|--3--|

B--1--|--3--|--1--|--0--|

G--0--|--2--|--2--|--0--|

D--2--|--0--|--2--|--0--|

A--3--|--0--|--0--|--2--|

E--0--|--0--|--0--|--3--|
(Toque acorde G por algumas vezes).
C                           D

So, so you think you can tell
AM

Heaven from Hell
G

Blue Skies from pain
D

Can you tell a green field
C

From a cold steel rail
AM

A smile from a veil
G

So you think you can tell
C

Did they get you to trade
D

Your heroes for ghosts
AM

Hot Ashes for trees
G

Hot air for a cool breeze
D

Cold comfort for change
C

Did you exchange?
AM

A walk on part in the war
G

For a lead role in a cage

Toque  algumas vezes

e---------------------3-------------------3---|

B---------------------3-------------------3---|

G---------------------0-------0-----------0---|

D-------------0--2----2----2-----2--0-----0---|   * 2

A------0h2------------0-------------------2---|

E---3-----------------x-------------------3---|
Troque algumas vezes

e---------------------3-------------------3---|

B---------------------3-------------------3---|

G---------------------0-------------------2---|

D-------------0--2----2----2--0-----------2---|   * 2

A------0h2------------0----------2--0-----0---|

E---3-----------------x-------------------0---|
Toque  algumas vezes

e-----------------3---|

B-----------------3---|

G-----------------0---|

D-----------------0---|

A---0—2p0------2--2---|

E---------3-3—-3--3---|
C                              D

How I wish, how I wish you were here
Am                                G

We're just two lost souls swimming in a fish bowl
D

Year after year.
C

Running over the same old ground.
AM

What have we found the same old fears
G

Wish you were here...
(Intro é tocada até o final).

Então é isso espero que tenham gostado de Tablatura Pink Floyd - Wish You Were Here

Deixe uma resposta

O seu endereço de email não será publicado Campos obrigatórios são marcados *


sete − = 3