Tablatura para baixo System of a Down “Aerials”

Esta é uma tablatura para baixo fácil de ser tocada. Iremos disponibilizar também um vídeo, onde você pode verificar a música e a letra, assim pode acompanhar se está tocando tudo corretamente.

Sobre tablatura para baixo ou cifras dessa e outras bandas, favor entrar em contato conosco com sugestões de outras músicas e comentem à vontade! Esperamos que gostem e bons estudos!

Vídeo + Letra

Tablatura para Baixo System of a Down – Aerials

INTRO

G|----------------------------------------------------
D|-1-0-----------3-1-0-0-0-0-1-3-5-6-5-3-1-0--
A|-----3-3-3-3-------------------------------------3
E|-----------------------------------------------------
G|-5-3-0-0-0-0-7-3-0-0-0-0-5-7-8-10-8-7-5-3-0-0-0-0
D|--------------------------------------------------------------
A|--------------------------------------------------------------
E|--------------------------------------------------------------

Verso

G|-----------------------------------------------------------------------------------
D|-------------------------------------------3-----------1-----------0--------------
A|---------------------------------3-3-3-3----3-3-3-3---3-3-3-3---3-3-3-3---3
E|-4-(x13 faça ou tire alguns)---------------------------------------------------

(Aí é tocado 3 vezes em ambos os versos da música)

Refrão

G|----------------------------------------------------
D|-1-0-----------3-1-0-0-0-0-1-3-5-6-5-3-1-0--
A|-----3-3-3-3-------------------------------------3
E|-----------------------------------------------------
G|----------------------------------------------------
D|-1-0-----------3-1-0-0-0-0-1-3-5-6-5-3-1-0--
A|-----3-3-3-3-------------------------------------3
E|-----------------------------------------------------

Parte sem vocal

G|-------------------------------------------
D|-1-0------3-1-0-----1-3-5-6-5-3-1-0-
A|-----3-----------------------------------3
E|-------------------------------------------

Esta parte é tocada duas vezes. Na segunda parte dela apresenta vocal. Então volte para o refrão tocado duas vezes. No final se você quiser tocar a parte da intrudução você pode conseguir uma boa harmonia.

Post sobre Tablatura para baixo System of a Down “Aerials” editado e postado por JP – PortalMúsica

Deixe uma resposta

O seu endereço de email não será publicado Campos obrigatórios são marcados *


nove × 8 =