Tablatura para Baixo: Rush – Tom Sawyer

Fala pessoal! Mais uma tablatura para baixo! Agora vou postar a tablatura de uma música que oferece mais desafio na hora de tocar baixo! E é um clássico do rock progressivo, confiram então a música e a tablatura para baixo de Rush – Tom Sawyer, quem não se lembra do Macgyver ao ouvir essa música não é mesmo?

Tablatura para Baixo Rush – Tom Sawyer

Banda: Rush
Música: Tom Sawyer
Álbum: Moving Pictures
Ano: 1981
Gênero: Rock/Rock Progressivo

Padrão: E, A,D,G

|------|---------------------------|---------------|------------------
|------|-----------------7-----10-.|-10-9-7-10-9-7-|------------4-5-4-
|------|-----7-----5--------------.|---------------|-----7------------
|-0----|-00-0--00-0--00-0--00-0----|---------------|-00-0--0-0-0------

- -----7------7-7-------------------------------|------------------------
- ---------------------------7-7--10-9-7--------|--------------------2---
- -55-5--5-555-5------7------------------10-9-7-|----------------------3-
- ----------------55-5--5-5-5-5-----------------|-0-2--0-2-3-5-5-3-5-----

- ------------|---------------------------|---------------------------------
- ------------|------------2-------------.|--------------------2------------
- --3-2-0-----|--------------3-3-2-0-----.|----------------------3--3-2-2-0-
- -3------3-2-|-0-2--2-3-5-----------3-2--|-0-2--0-2-3-5-5-3-5-----3---3----

|------------------------------------|-----|-----------|-----------|
|------------------------------------|-----|----------.|----------.|
|-0-2---2-----------0-2--------------|-----|----------.|----------.|
|-----------5-5-3-3------5-5-3--5--0-|-0---|-0-0--0-0--|-0-0--2-2--|

{-------------------|-------------------}-------------------|
{-7-6------7-6-----.|-7-6--------------.}-7-6------7-6-----.|
{--9-7-5----9-7-5--.|--9-7-5-5-------5-.}--9-7-5----9-7-5--.|
{-------7-7------7--|---------7--5-7----}-------7-7------7--|

- -7-6--------7--6--------|--------------------------------------|--------
- --9-7-5-------9-7-5----.|-7-6-----7--6------7-6----------------|--------
- -------7-7>9-------7>9-.|--9-7-5----9-7-5----9-7-5-5-------5-7-|-----7--
- ------------------------|-------7---------7---------7--5-7-----|-00-0---

- ----------------------------------|---------------------------------------
- -----------7-------------10-------|-----------------7-----10----10-10-----
- -----5----------------------------|-----7-----5---------------10----------
- -00-0--00-0--5-55-55-0000---8-7-5-|-00-0--00-0--00-0--00-0------------8-8-

- -------------------------|------------------------7-7---7-7-7----------
- -10-9-7--10-10-10-9-9-7\-|------------4-5-4-5---------------------7-7--
- -------------------------|-----7--------------55-5---5-5-5-5-----------
- -------------------------|-00-0--0-0-0------------------------55-5---5-

- -----------------------------|---------------------------------|
- --7---7-7-7-10-9-7-----------|-----------------2---------------|
- -------------------10-10-9-7-|-------------------3--3-2-0-0----|
- -5-5-5-----------------------|-0-2--0-2-3-5-3-5----3-------3-2-|

- ---------------------------|-------------------------------------|
- ------------2-------------.|--------------------2----------------|
- --------------3-3-2-0-----.|----------------------3--3-2-2-0-0-0-|
- -0-2--2-3-5-----------3-2--|-0-2--0-2-3-5-5-3-5-----3---3--------|

- ------------------------------------|-------------|----------------------|
- ------------------------------------|-------------|----------------------|
- -0-2---2-----------0-2--------------|-------------|-7--------------------|
- -----------5-5-3-3------5-5-3--5--0-|-0---0---0---|--0--0-0--0-0--0-0--0-|

- ---------------------------------------------------------|------------
- -----2-2----4--------------------------------------------|----------4-
- ---2--2---4---7------------------7-77--7-------7---7-----|--------4---
- -0------2-------0--2-2--0-0--2-2-----0--2-2--00--00--2-2-|-0-0--2-----

- ------------|----------------|--------------|
- ----------4-|-------------4-.|------------4-|
- --------4---|---77--7---4---.|---7--7---4---|
- -0-0-02-----|-00--00--2------|-00-00--2-----|

Descrição dos Símbolos:

| – Significa uma parte da música e não um compasso convencional.
: Indica que essa parte deve ser repetida.
_ – Indica um hammer-on ou pull-off (você vai distinguir qual deve ser o caso)
> – Indica um bend-up ou down ou slide. Use a alavanca para o downbend.
! – Indica o Vibrato.
^ – Indica o Tapped Harmônico .
. – Sob as cordas, indica que a nota é um staccato (curto).
\ – Indica um slide específico em baixo de uma nota.
AH – Indica um harmônico artificial com a palheta.

Se tiver problemas com a tablatura avise-nos.

Artigo sobre Tablatura para Baixo: Rush – Tom Sawyer escrito por JP – Portal Música.

Deixe uma resposta

O seu endereço de email não será publicado Campos obrigatórios são marcados *


− 4 = três