Tablatura de Riffs de Baixo

Vou colocar algumas tablaturas para tocar alguns riffs de baixo com níveis tanto para iniciantes quanto para nível intermediário e alguns para blues, com comentários conforme for necessário. Lembrando também que a compreensão e saber ler uma tablatura é essencial para um bom desenvolvimento sonoro, caso contrário alguma nota pode soar meio sem sentido.

Tablatura de Riffs de Baixo 1: Iniciante

G|----------------|----------------|
D|---------10p8-10|----------------|
A|-----8----------|-11-10-8--------|
E|-9--------------|----------------|

Tablatura de Riffs de Baixo 2: Intermediário

G:|-----------------10---------------------------------------------5---3---2---0----
D:|0-0-7-0-7-8-0-7-0--0-7-8-0-8-10-0-10-12-0-12-10-0-10-8-0-8-7-0-7---5---3---2--2-0
A:|---------------------------------------------------------------0-0-0-0-0-0-0-4---
E:|---------------------------------------------------------------------------------

---------0-2-3-0-2-3-5-2-3-5-7-3-6-9-7-2s3----------
-0-2-3-0----------------------------------2s3-------
---------------------------------------------5s4-7s5
----------------------------------------------------

 

Tablatura de Riffs de Baixo 3: Intermediário

Afinação Padrão (EADG)

G|-12----12-12----12-12-12-|-15----15-15----15-15-12-|
D|-14----14-14----14-14-14-|-14----14-14----14-14-14-|
A|-15----15-15----15-15-15-|-15----15-15----15-15-15-|
E|-------------------------|-------------------------|

G|-14----14-14----14-14-14-|-17----17-17----17-17-14-|
D|-15----15-15----15-15-15-|-15----15-15----15-15-15-|
A|-15----15-15----15-15-15-|-15----15-15----15-15-15-|
E|-------------------------|-------------------------|

G|-14----14-14----14-14-14-|-17----17-17----17-17-17-|
D|-16----16-16----16-16-16-|-16----16-16----16-16-16-|
A|-17----17-17----17-17-17-|-17----17-17----17-17-17-|
E|-------------------------|-------------------------|

G|-16----16-16----16-16-16-|-19----19-19----19-19-16-|
D|-17----17-17----17-17-17-|-17----17-17----17-17-17-|
A|-17----17-17----17-17-17-|-17----17-17----17-17-17-|
E|-------------------------|-------------------------|

Essa música utiliza os acordes para baixo C maior e D maior. Soa legal.

Tablatura de Riffs de Baixo 4: Avançado

G|-----9-----------10--|
D|---9-----9-7h87p 7---|
A|-7-----7-------------|
E|---------------------|

G|-----------------------------------|
D|-------------7h8p7\\\\5-5h7-3b-4 6----|
A|--7---11-9-----------------------7^|
E|-----------------------------------|

Toque esta parte moderadamente rápido ^

Tablatura de Riffs de Baixo 5: Blues Bar

Afinação Padrão (E,A,D,G)

E E  E E E E  E E E E  E E E E  E E E E  E E E E  E E E E  E E E E  E E
|--------------------------------------------7-8-7--------------------------|
|--------7-8-7-------------7-8-7--------7-10-------10-7--------7-8-7--------|
|---7-10-------10-7---7-10-------10-7-8-------------------7-10-------10-7---|
|-8-----------------8-----------------------------------8-------------------|

   E E  E E E E  E E E E  E E E E  E E
|-----------------------------------------|
|----9-12-9---7-10-7--------7-8-7---------|
|-10--------8----------7-10-------10-7----|
|--------------------8--------------------|

 

Tablatura de Riffs de Baixo 6: Avançado

Padrão (G,D,A,E)

G |-----------------3-------------|---------------3h5/6/5p3p0--------|
D |-------5-----3h5---5------5----|-------5--3h5-------------5-------|
A |----------------------3h5------|----------------------------------|
E |0h3-3-----x--------------------|0h3-3-----------------------------|

G |-----------------3-------------|----------------------------------|
D |-------5-----3h5---5------5----|-----5------3---------------------|
A |----------------------3h5------|5/7-----3h5---5-4-3---------------|
E |0h3-3-----x--------------------|----------------------------------|

G |-----------------3-------------|----------------------------------|
D |-------5-----3h5---5------5----|-----------7-----8----------------|
A |----------------------3h5------|----------------------------------|
E |0h3-3-----x--------------------|0h3-3--x-5----6-----5-------------|

G |-----------------3-------------|------------5--7--5---------------|
D |-------5-----3h5---5------5----|------5--7-----------7------------|
A |----------------------3h5------|5/7-------------------------------|
E |0h3-3-----x--------------------|----------------------------------|

G |---7------------9--------------|-------------7--------------------|
D |5----5-------7-----7-----------|---9---7h9------9-----------------|
A |-------------------------------|7----x-----x----------------------|
E |-------------------------------|----------------------------------|

G |---7------------9--------------|--------13-------13/14----14/13---|
D |5----5-------7-----7-----------|7/11-11----11-11-------12---------|
A |-------------------------------|----------------------------------|
E |-------------------------------|----------------------------------|

G |---7------------9--------------|------7--7------x-----------------|
D |5----5-------7-----7-----------|--9--------7h9-x--7---------------|
A |-------------------------------|7---7--7--------------------------|
E |-------------------------------|----------------------------------|

G |---7------------9--------------|------7---7--------7--------------|
D |5----5-------7-----7-----------|--7-------------7-----------------|
A |-------------------------------|8---8---8----8--------------------|
E |-------------------------------|----------------------------------|

G |------7---7--------------------|---7------6---6-------7------6---6|
D |--7-------------7--------------|----------------------------------|
A |7---7---7----7----7------------|5--5-5--x-5-x-5--5--5-5--x-5-x-5--|
E |-------------------------------|----------------------------------|

G |---6--------------4----5p4-----|---7------6---6-------7------6---6|
D |--------------5------------5/7-|----------------------------------|
A |----------5h7------------------|5--5-5--x-5-x-5--5--5-5--x-5-x-5--|
E |5--5-5-x--------3-3-3----------|----------------------------------|

G |---6--------------4----5p4-----|
D |--------------5------------5/7-|
A |----------5h7------------------|
E |5--5-5-x--------3-3-3----------|

De fato já é uma música completa e unicamente para baixo, e você pode adicionar uma bateria e guitarra se quiser.

Tablatura de Riffs de Baixo 7: Punky

G|----h9---------8-----|
D|---9-----9-6h7p6-----|
A|-7-----7-------------|
E|---------------------|

G|-----------------------------------|
D|-------------7h8p7\\\\5-5h7-3b-4 6----|
A|--7---11-9-----------------------7^|
E|-----------------------------------|

Pessoal espero que essas tabs de riffs de baixo possam ter sido de grande ajuda para vocês.

Artigo sobre Tablatura para Baixo: Riffs de Baixo escrito por JP – PM.

Deixe uma resposta

O seu endereço de email não será publicado Campos obrigatórios são marcados *


6 + = onze