Tablatura Guns N’ Roses – Knockin’ On Heaven’s Door

Tablatura Guns N’ Roses: Esta tablatura não foi copiada de algum lugar ou outra partitura e sim tirada de ouvido, revisei e não encontrei nenhum erro, mas caso encontre algo de errado nos avise. O riff da tablatura abaixo no solo #2 serve para o guitarra base tocar. Esta é uma música original do Bob Dylan e já postamos a cifra dela anteriormente, que é uma versão acústica: Veja Aqui

Tablatura Guns N’ Roses – Knockin’ on Heaven’s Door

Detalhe:
Guitarra Base: padrão (EADGBe) para tudo, exceto para o guitarra solo durante os solos.

Acordes usados:
*    EADGBe
F#5  244xxx
C#5  446xxx
B5   224xxx

 

Técnicas:
Hammer on:      h
Pull off:       p
Slide:          s
Bend:           b
Vibrato:        v
Segurar nota:   ~
Nota Muda:      x
Harmônica:      '

 

Introdução:
e-|----2--------|-------------|-------------|----2--------|-------------|-------------|
B-|------2---2--|----6p4------|--4----4-----|------2---2--|-----6p4-----|-------------|
G-|--------3----|--------6-6--|--4-4---4-3h4|--------3----|----6---6-6--|-----3p1-----|
D-|--4----------|--6------6---|--4--4--4----|--4----------|---6-----6---|----4---4-2h4|
A-|--4----------|--4----------|------2------|--4----------|--4----------|---2---------|
E-|-------------|-------------|-------------|-------------|-------------|--2----------|

e-|-------------|-------------|-------------|-------------|-------------|-------------|
B-|-------------|-------------|-------------|-------------|-------------|-------------|
G-|-------------|-------------|-------------|-------------|-------------|-------------|
D-|--4~---------|--6~---------|--4~---------|--4~---------|--6~---------|--4~---------|
A-|--4~---------|--4~---------|--2~--2221222|--4~---------|--6~---------|--2~---------|
E-|--2~---------|--4~---------|--2~-2-------|--2~---------|--4~---------|--2~1h2-2p1-2|

Verso 1:
e-|----2--------|-------------|-------------|----2--------|-------------|-------------|
B-|------2---2--|----6p4------|--4----4-----|------2---2--|-----6p4-----|-------------|
G-|--------3----|--------6-6--|--4-4---4-3h4|--------3----|----6---6-6--|-----3p1-----|
D-|--4----------|--6------6---|--4--4--4----|--4----------|---6-----6---|----4---4-2h4|
A-|--4----------|--4----------|------2------|--4----------|--4----------|---2---------|
E-|-------------|-------------|-------------|-------------|-------------|--2----------|

e-|----2--------|-------------|-------------|----2--------|-------------|-------------|
B-|------2---2--|----6p4------|--4----4-----|------2---2--|-----6p4-----|-------------|
G-|--------3----|--------6-6--|--4-4---4-3h4|--------3----|----6---6-6--|-----3p1-----|
D-|--4----------|--6------6---|--4--4--4----|--4----------|---6-----6---|----4---4-2h4|
A-|--4----------|--4----------|------2------|--4----------|--4----------|---2---------|
E-|-------------|-------------|-------------|-------------|-------------|--2----------|
             Há quatro linhas e uma tablatura do riff é para duas delas.

Refrão:
e-|-------------|-------------|-------------|-------------|-------------|-------------|
B-|-------------|-------------|-------------|-------------|-------------|-------------|
G-|-------------|-------------|-------------|-------------|-------------|-------------|
D-|--4~---------|--6~---------|--4~---------|--4~---------|--6~---------|--4~---------|
A-|--4~---------|--4~---------|--2~--2221222|--4~---------|--6~---------|--2~---------|
E-|--2~---------|--4~---------|--2~-2-------|--2~---------|--4~---------|--2~1h2-2p1-2|

e-|-------------|-------------|-------------|-------------|-------------|-------------|
B-|-------------|-------------|-------------|-------------|-------------|-------------|
G-|-------------|-------------|-------------|-------------|-------------|-------------|
D-|--4~---------|--6~---------|--4~---------|--4~---------|--6~---------|--4~---------|
A-|--4~---------|--4~---------|--2~--2221222|--4~---------|--6~---------|--2~---------|
E-|--2~---------|--4~---------|--2~-2-------|--2~---------|--4~---------|--2~1h2-2p1-2|

Solo 1:
e-|----------------9-------------|-------9h11-9~----------9~-------------|
B-|-----11p9-11'-9---11p9--------|---------------12p11-12----12~-11------|
G-|--11------11-----------11-11--|--8h11---------------------------------|
D-|------------------------------|----------------------------------13~--|
A-|------------------------------|---------------------------------------|
E-|------------------------------|---------------------------------------|

|--------9---------|
|--11h12---12-11~--|
|------------------|
|------------------|
|------------------|
|------------------|

e-|--------16h18-16~-h18-h18-----|--19h21-19-18-19-18-19h21-19-18-19-18------|
B-|--16-19-------------------19--|-------------------------------------------|
G-|------------------------------|--------------------------------------20~--|
D-|------------------------------|-------------------------------------------|
A-|------------------------------|-------------------------------------------|
E-|------------------------------|-------------------------------------------|

e-|---------------------------14~--|
B-|--16p14h16p14-------------------|
G-|--------------15p13h15p13-------|
D-|--------------------------16----|
A-|--------------------------------|
E-|--------------------------------|

Verso 2:
Toque como no Verso 1.

[Refrão]

Solo 2:
e-|--12s14~-13v-13h14p13p11-13p11----11--|--14p11-14p11-9h11-------|------------------------|
B-|-------------------------------14-----|-------------------9h11--|------------------------|
G-|--------------------------------------|-------------------------|------------------------|
D-|--------------------------------------|-------------------------|--8-6---8~--8p6-8p6-----|
A-|--------------------------------------|-------------------------|------9-------------9~--|
E-|--------------------------------------|-------------------------|------------------------|
  |                                      |                         |                        |
e-|--------------------------------------|--------------------14p11-14p11-----14p11-14p11---|
B-|--------------------------------------|-------------------------|------------------------|
G-|--------------------------------------|-------------------------|------------------------|
D-|-----4~--6~--------------4~-----------|--4~----4~---------4~----|--------6~----------4~--|
A-|-----4~--4~--------------2~-----------|--2~----2~---------4~----|--------4~----------2~--|
E-|-----2~--4~--------------2~-----------|--2~----2~---------2~----|--------4~----------2~--|

e-|--------14p11-16h18-16p14-16p14--|-19p18-19h21~-19-18-19-21~-19-18-19-21h23-21h23-21-----|
B-|---------------------------------|---------------------------------------------------21--|
G-|--11-13--------------------------|-------------------------------------------------------|
D-|---------------------------------|-------------------------------------------------------|
A-|---------------------------------|-------------------------------------------------------|
E-|---------------------------------|-------------------------------------------------------|
  |                                 |                                                       |
e-|---------------------------------|-------------------------------------------------------|
B-|---------------------------------|-------------------------------------------------------|
G-|---------------------------------|-------------------------------------------------------|
D-|---------------------------------|---------4~------------6~-------------------4~---------|
A-|---------------------------------|---------4~------------4~-------------------2~---------|
E-|---------------------------------|---------2~------------4~-------------------2~---------|

e-|--19b-21-19s18-18-21p19p18-18--|--13h14~-14p13v-13h14p13p11-13p11~-14p11~14p11~----11------|
B-|-------------------------------|------------------------------------------------14----11~--|
G-|-------------------------------|-----------------------------------------------------------|
D-|-------------------------------|-----------------------------------------------------------|
A-|-------------------------------|-----------------------------------------------------------|
E-|-------------------------------|-----------------------------------------------------------|
  |                               |                                                           |
e-|-------------------------------|-----------------------------------------------------------|
B-|-------------------------------|-----------------------------------------------------------|
G-|-------------------------------|-----------------------------------------------------------|
D-|-------------------------------|-----4~-----6~----------------4~---------------------------|
A-|-------------------------------|-----4~-----4~----------------2~---------------------------|
E-|-------------------------------|-----2~-----4~----------------2~---------------------------|

e-|---------------------------------------|
B-|---------------------------------------|
G-|------11~--------11-------------4-3----|
D-|----------15~-15----15p13~--11~---4~---|
A-|---------------------------------------|
E-|---------------------------------------|
  |                                       |
e-| Abafar cordas...                      |
B-|---------------------------------------|
G-|---------------------------------------|
D-|--44------66------6s44-------4---444---|
A-|--44-4----44-4----4s22-2----22-2-222-2-|
E-|--22--2---44--4---4s22--2---22-2-222---|

Use o último riff na parte que toca o telefone e no refrão sem música.
Eu sei que isto não está certo para o refrão mas as notas foram muito abafadas pelo piano e foram dominadas pelos vocais.
Então toque o refrão 2x e depois termine com isso.

 Conclusão:
e-|---------------------------|-bateria-|----------|
B-|-----------------------2~--|-bateria-|--2-4p2x--|
G-|---------------------------|-bateria-|----------|
D-|--4~-------4~--------------|-bateria-|----------|
A-|--4~-----------------------|-bateria-|----------|
E-|--2~-----------------------|-bateria-|----------|

Espero que vocês gostem desta tablatura e ajude a tirar a música.

Artigo sobre Tablatura Guns N’ Roses – Knockin’ On Heaven’s Door escrito e editado por JP – Portal Música.

Deixe uma resposta

O seu endereço de email não será publicado Campos obrigatórios são marcados *


sete − = 1