Categorizado | Guitarra, Tablaturas

Tablatura Escala de Blues

Olá, hoje vou postar uns exemplos sobre a escala de blues, mas que é na verdade derivada da escala pentatônica menor. Também já fizemos post sobre a Escala Maior, Pentatônica Maior, Escala Menor, Pentatônica Menor, Menor Harmônica e Melódica Menor.

Então vamos lá!

Escala de Blues em Dó ou C:

escala de blues

 

 

 

Tab

E||-----------------------|------------------------|-------------------------|
B||-----------------------|------------------------|--------------8----11----|
G||-----------------------|-------------------8----|--10----11---------------|
D||-----------------------|--------8----10---------|-------------------------|
A||-------------8----9----|--10--------------------|-------------------------|
E||--8----11--------------|------------------------|-------------------------|

--8---------------------|------------------------|------------------------|
-------11----8----------|------------------------|------------------------|
------------------11----|--10----8---------------|------------------------|
------------------------|-------------10----8----|------------------------|
------------------------|------------------------|--10----9----8----------|
------------------------|------------------------|------------------11----|

-------||
-------||
-------||
-------||
-------||
--8----||

Escala de Blues em Dó Sustenido ou C#:

escala de blues

 

 

 

Tab

E||------------------------|------------------------|-------------------------|
B||------------------------|------------------------|--------------9----12----|
G||------------------------|-------------------9----|--11----12---------------|
D||------------------------|--------9----11---------|-------------------------|
A||-------------9----10----|--11--------------------|-------------------------|
E||--9----12---------------|------------------------|-------------------------|

--9---------------------|------------------------|-------------------------|
-------12----9----------|------------------------|-------------------------|
------------------12----|--11----9---------------|-------------------------|
------------------------|-------------11----9----|-------------------------|
------------------------|------------------------|--11----10----9----------|
------------------------|------------------------|-------------------12----|

-------||
-------||
-------||
-------||
-------||
--9----||

Escala de Blues em Ré ou D:

escala de blues

 

 

 

Tab

E||--------------------------|--------------------------|
B||--------------------------|--------------------------|
G||--------------------------|--------------------10----|
D||--------------------------|--------10----12----------|
A||--------------10----11----|--12----------------------|
E||--10----13----------------|--------------------------|

--------------------------|--10----------------------|
--------------10----13----|--------13----10----------|
--12----13----------------|--------------------13----|
--------------------------|--------------------------|
--------------------------|--------------------------|
--------------------------|--------------------------|

--------------------------|--------------------------|--------||
--------------------------|--------------------------|--------||
--12----10----------------|--------------------------|--------||
--------------12----10----|--------------------------|--------||
--------------------------|--12----11----10----------|--------||
--------------------------|--------------------13----|--10----||

Escala de Blues em Ré Sustenido ou D#:

escala de blues

 

 

 

Tab

E||--------------------------|--------------------------|
B||--------------------------|--------------------------|
G||--------------------------|--------------------11----|
D||--------------------------|--------11----13----------|
A||--------------11----12----|--13----------------------|
E||--11----14----------------|--------------------------|

--------------------------|--11----------------------|
--------------11----14----|--------14----11----------|
--13----14----------------|--------------------14----|
--------------------------|--------------------------|
--------------------------|--------------------------|
--------------------------|--------------------------|

--------------------------|--------------------------|--------||
--------------------------|--------------------------|--------||
--13----11----------------|--------------------------|--------||
--------------13----11----|--------------------------|--------||
--------------------------|--13----12----11----------|--------||
--------------------------|--------------------14----|--11----||

Escala de Blues em Mi ou E:

escala de blues

 

 

 

Tab

E||--------------------------|--------------------------|
B||--------------------------|--------------------------|
G||--------------------------|--------------------12----|
D||--------------------------|--------12----14----------|
A||--------------12----13----|--14----------------------|
E||--12----15----------------|--------------------------|

--------------------------|--12----------------------|
--------------12----15----|--------15----12----------|
--14----15----------------|--------------------15----|
--------------------------|--------------------------|
--------------------------|--------------------------|
--------------------------|--------------------------|

--------------------------|--------------------------|--------||
--------------------------|--------------------------|--------||
--14----12----------------|--------------------------|--------||
--------------14----12----|--------------------------|--------||
--------------------------|--14----13----12----------|--------||
--------------------------|--------------------15----|--12----||

Escala de Blues em Fá ou F#:

escala de blues

 

 

 

Tab

E||----------------------|----------------------|----------------------|
B||----------------------|----------------------|------------1----4----|
G||----------------------|-----------------1----|--3----4--------------|
D||----------------------|-------1----3---------|----------------------|
A||------------1----2----|--3-------------------|----------------------|
E||--1----4--------------|----------------------|----------------------|

--1-------------------|----------------------|----------------------|-------||
-------4----1---------|----------------------|----------------------|-------||
-----------------4----|--3----1--------------|----------------------|-------||
----------------------|------------3----1----|----------------------|-------||
----------------------|----------------------|--3----2----1---------|-------||
----------------------|----------------------|-----------------4----|--1----||

Escala de Blues em Fá Sustenido ou F#:

escala de blues

 

 

 

Tab

E||----------------------|----------------------|----------------------|
B||----------------------|----------------------|------------2----5----|
G||----------------------|-----------------2----|--4----5--------------|
D||----------------------|-------2----4---------|----------------------|
A||------------2----3----|--4-------------------|----------------------|
E||--2----5--------------|----------------------|----------------------|

--2-------------------|----------------------|----------------------|-------||
-------5----2---------|----------------------|----------------------|-------||
-----------------5----|--4----2--------------|----------------------|-------||
----------------------|------------4----2----|----------------------|-------||
----------------------|----------------------|--4----3----2---------|-------||
----------------------|----------------------|-----------------5----|--2----||

Escala de Blues em Sol ou G:

escala de blues

 

 

 

Tab

E||----------------------|----------------------|----------------------|
B||----------------------|----------------------|------------3----6----|
G||----------------------|-----------------3----|--5----6--------------|
D||----------------------|-------3----5---------|----------------------|
A||------------3----4----|--5-------------------|----------------------|
E||--3----6--------------|----------------------|----------------------|

--3-------------------|----------------------|----------------------|-------||
-------6----3---------|----------------------|----------------------|-------||
-----------------6----|--5----3--------------|----------------------|-------||
----------------------|------------5----3----|----------------------|-------||
----------------------|----------------------|--5----4----3---------|-------||
----------------------|----------------------|-----------------6----|--3----||

Escala de Blues em Sol Sustenido ou G#:

escala de blues

 

 

 

Tab

E||----------------------|----------------------|----------------------|
B||----------------------|----------------------|------------4----7----|
G||----------------------|-----------------4----|--6----7--------------|
D||----------------------|-------4----6---------|----------------------|
A||------------4----5----|--6-------------------|----------------------|
E||--4----7--------------|----------------------|----------------------|

--4-------------------|----------------------|----------------------|-------||
-------7----4---------|----------------------|----------------------|-------||
-----------------7----|--6----4--------------|----------------------|-------||
----------------------|------------6----4----|----------------------|-------||
----------------------|----------------------|--6----5----4---------|-------||
----------------------|----------------------|-----------------7----|--4----||

Escala de Blues em Lá ou A:

escala de blues

 

 

 

Tab

E||----------------------|----------------------|----------------------|
B||----------------------|----------------------|------------5----8----|
G||----------------------|-----------------5----|--7----8--------------|
D||----------------------|-------5----7---------|----------------------|
A||------------5----6----|--7-------------------|----------------------|
E||--5----8--------------|----------------------|----------------------|

--5-------------------|----------------------|----------------------|-------||
-------8----5---------|----------------------|----------------------|-------||
-----------------8----|--7----5--------------|----------------------|-------||
----------------------|------------7----5----|----------------------|-------||
----------------------|----------------------|--7----6----5---------|-------||
----------------------|----------------------|-----------------8----|--5----||

Escala de Blues em Lá Sustenido ou A#:

escala de blues

 

 

 

Tab

E||----------------------|----------------------|----------------------|
B||----------------------|----------------------|------------6----9----|
G||----------------------|-----------------6----|--8----9--------------|
D||----------------------|-------6----8---------|----------------------|
A||------------6----7----|--8-------------------|----------------------|
E||--6----9--------------|----------------------|----------------------|

--6-------------------|----------------------|----------------------|-------||
-------9----6---------|----------------------|----------------------|-------||
-----------------9----|--8----6--------------|----------------------|-------||
----------------------|------------8----6----|----------------------|-------||
----------------------|----------------------|--8----7----6---------|-------||
----------------------|----------------------|-----------------9----|--6----||

Escala de Blues em Si ou B:

escala de blues

 

 

 

Tab

E||-----------------------|----------------------|------------------------|
B||-----------------------|----------------------|-------------7----10----|
G||-----------------------|-----------------7----|--9----10---------------|
D||-----------------------|-------7----9---------|------------------------|
A||-------------7----8----|--9-------------------|------------------------|
E||--7----10--------------|----------------------|------------------------|

--7---------------------|----------------------|-----------------------|
-------10----7----------|----------------------|-----------------------|
------------------10----|--9----7--------------|-----------------------|
------------------------|------------9----7----|-----------------------|
------------------------|----------------------|--9----8----7----------|
------------------------|----------------------|-----------------10----|


Artigo sobre Tablatura Escala de Blues editado por JP

Gostou? Compartilhe!

Você pode gostar também:

Deixar Comentário

Opine Já!

O que você quer ver no Portal Música?

Ver Resultados

Loading ... Loading ...

Estamos no Facebook