Categorizado | Guitarra, Tablaturas

Tablatura de Escala Maior para Guitarra

Olá, este será um artigo sobre escala maior para guitarra contendo tablaturas e figuras. Lembramos também que mais pra frente postaremos mais escalas para guitarra, como a pentatônima maior, escala menor e etc…

Escala Maior

Escala Maior de Guitarra Dó Maior (C Maior):

escala maior

Tab

E||-----------------------|------------------------|-----------------------|
B||-----------------------|------------------------|------------------8----|
G||-----------------------|------------------------|--7----9----10---------|
D||-----------------------|--------7----9----10----|-----------------------|
A||-------------7----8----|--10--------------------|-----------------------|
E||--8----10--------------|------------------------|-----------------------|

--------7----8----7----|------------------------|-----------------------|
--10-------------------|--10----8---------------|-----------------------|
-----------------------|-------------10----9----|--7--------------------|
-----------------------|------------------------|-------10----9----7----|
-----------------------|------------------------|-----------------------|
-----------------------|------------------------|-----------------------|

------------------------|-------||
------------------------|-------||
------------------------|-------||
------------------------|-------||
--10----8----7----------|-------||
------------------10----|--8----||

Escala Maior de Guitarra Dó Sustenido Maior(C# Maior):

escala maior

Tab

E||-----------------------|-------------------------|------------------------|
B||-----------------------|-------------------------|-------------------9----|
G||-----------------------|-------------------------|--8----10----11---------|
D||-----------------------|--------8----10----11----|------------------------|
A||-------------8----9----|--11---------------------|------------------------|
E||--9----11--------------|-------------------------|------------------------|

--------8----9----8----|-------------------------|------------------------|
--11-------------------|--11----9----------------|------------------------|
-----------------------|-------------11----10----|--8---------------------|
-----------------------|-------------------------|-------11----10----8----|
-----------------------|-------------------------|------------------------|
-----------------------|-------------------------|------------------------|

------------------------|-------||
------------------------|-------||
------------------------|-------||
------------------------|-------||
--11----9----8----------|-------||
------------------11----|--9----||

Escala Maior de Guitarra Ré Maior (D Maior):

escala maior

Tab

E||-------------------------|-------------------------|
B||-------------------------|-------------------------|
G||-------------------------|-------------------------|
D||-------------------------|--------9----11----12----|
A||--------------9----10----|--12---------------------|
E||--10----12---------------|-------------------------|

-------------------------|--------9----10----9----|--------------------------|
-------------------10----|--12--------------------|--12----10----------------|
--9----11----12----------|------------------------|--------------12----11----|
-------------------------|------------------------|--------------------------|
-------------------------|------------------------|--------------------------|
-------------------------|------------------------|--------------------------|

------------------------|-------------------------|--------||
------------------------|-------------------------|--------||
--9---------------------|-------------------------|--------||
-------12----11----9----|-------------------------|--------||
------------------------|--12----10----9----------|--------||
------------------------|-------------------12----|--10----||

Escala Maior de Guitarra Ré Sustenido Maior (D# Maior):

escala maior

Tab

E||--------------------------|--------------------------|
B||--------------------------|--------------------------|
G||--------------------------|--------------------------|
D||--------------------------|--------10----12----13----|
A||--------------10----11----|--13----------------------|
E||--11----13----------------|--------------------------|

--------------------------|--------10----11----10----|
--------------------11----|--13----------------------|
--10----12----13----------|--------------------------|
--------------------------|--------------------------|
--------------------------|--------------------------|
--------------------------|--------------------------|

--------------------------|--------------------------|
--13----11----------------|--------------------------|
--------------13----12----|--10----------------------|
--------------------------|--------13----12----10----|
--------------------------|--------------------------|
--------------------------|--------------------------|

--------------------------|--------||
--------------------------|--------||
--------------------------|--------||
--------------------------|--------||
--13----11----10----------|--------||
--------------------13----|--11----||

Escala Maior de Guitarra Mi Maior (E Maior):

escala maior

Tab

E||--------------------------|--------------------------|
B||--------------------------|--------------------------|
G||--------------------------|--------------------------|
D||--------------------------|--------11----13----14----|
A||--------------11----12----|--14----------------------|
E||--12----14----------------|--------------------------|

--------------------------|--------11----12----11----|
--------------------12----|--14----------------------|
--11----13----14----------|--------------------------|
--------------------------|--------------------------|
--------------------------|--------------------------|
--------------------------|--------------------------|

--------------------------|--------------------------|
--14----12----------------|--------------------------|
--------------14----13----|--11----------------------|
--------------------------|--------14----13----11----|
--------------------------|--------------------------|
--------------------------|--------------------------|

--------------------------|--------||
--------------------------|--------||
--------------------------|--------||
--------------------------|--------||
--14----12----11----------|--------||
--------------------14----|--12----||

Escala Maior de Guitarra Fá Maior (F Maior):

escala maior

Tab

E||----------------------|----------------------|----------------------|
B||----------------------|----------------------|-----------------1----|
G||----------------------|----------------------|--0----2----3---------|
D||----------------------|-------0----2----3----|----------------------|
A||------------0----1----|--3-------------------|----------------------|
E||--1----3--------------|----------------------|----------------------|

-------0----1----0----|----------------------|----------------------|
--3-------------------|--3----1--------------|----------------------|
----------------------|------------3----2----|--0-------------------|
----------------------|----------------------|-------3----2----0----|
----------------------|----------------------|----------------------|
----------------------|----------------------|----------------------|

----------------------|-------||
----------------------|-------||
----------------------|-------||
----------------------|-------||
--3----1----0---------|-------||
-----------------3----|--1----||

Escala Maior de Guitarra Fá Sustenido Maior (F# Maior):

escala maior

Tab

E||----------------------|----------------------|----------------------|
B||----------------------|----------------------|-----------------2----|
G||----------------------|----------------------|--1----3----4---------|
D||----------------------|-------1----3----4----|----------------------|
A||------------1----2----|--4-------------------|----------------------|
E||--2----4--------------|----------------------|----------------------|

-------1----2----1----|----------------------|----------------------|
--4-------------------|--4----2--------------|----------------------|
----------------------|------------4----3----|--1-------------------|
----------------------|----------------------|-------4----3----1----|
----------------------|----------------------|----------------------|
----------------------|----------------------|----------------------|

----------------------|-------||
----------------------|-------||
----------------------|-------||
----------------------|-------||
--4----2----1---------|-------||
-----------------4----|--2----||

Escala Maior de Guitarra Sol Maior (G Maior):

escala maior

Tab

E||----------------------|----------------------|----------------------|
B||----------------------|----------------------|-----------------3----|
G||----------------------|----------------------|--2----4----5---------|
D||----------------------|-------2----4----5----|----------------------|
A||------------2----3----|--5-------------------|----------------------|
E||--3----5--------------|----------------------|----------------------|

-------2----3----2----|----------------------|----------------------|
--5-------------------|--5----3--------------|----------------------|
----------------------|------------5----4----|--2-------------------|
----------------------|----------------------|-------5----4----2----|
----------------------|----------------------|----------------------|
----------------------|----------------------|----------------------|

----------------------|-------||
----------------------|-------||
----------------------|-------||
----------------------|-------||
--5----3----2---------|-------||
-----------------5----|--3----||

Escala Maior de Guitarra Sol Sustenido Maior (G# Maior):

escala maior

Tab

E||----------------------|----------------------|----------------------|
B||----------------------|----------------------|-------1----2----4----|
G||----------------------|------------0----1----|--3-------------------|
D||----------------------|--1----3--------------|----------------------|
A||------------3----4----|----------------------|----------------------|
E||--4----6--------------|----------------------|----------------------|

--1----3----4----3----|--1-------------------|----------------------|
----------------------|-------4----2----1----|----------------------|
----------------------|----------------------|--3----1----0---------|
----------------------|----------------------|-----------------3----|
----------------------|----------------------|----------------------|
----------------------|----------------------|----------------------|

----------------------|-------||
----------------------|-------||
----------------------|-------||
--1-------------------|-------||
-------4----3----1----|-------||
----------------------|--4----||

Escala Maior de Guitarra Lá Maior (A Maior):

escala maior

Tab

E||----------------------|----------------------|----------------------|
B||----------------------|----------------------|-----------------5----|
G||----------------------|----------------------|--4----6----7---------|
D||----------------------|-------4----6----7----|----------------------|
A||------------4----5----|--7-------------------|----------------------|
E||--5----7--------------|----------------------|----------------------|

-------4----5----4----|----------------------|----------------------|
--7-------------------|--7----5--------------|----------------------|
----------------------|------------7----6----|--4-------------------|
----------------------|----------------------|-------7----6----4----|
----------------------|----------------------|----------------------|
----------------------|----------------------|----------------------|

----------------------|-------||
----------------------|-------||
----------------------|-------||
----------------------|-------||
--7----5----4---------|-------||
-----------------7----|--5----||

Escala Maior de Guitarra Lá Sustenido Maior (A# Maior):

escala maior

Tab

E||----------------------|----------------------|----------------------|
B||----------------------|----------------------|-----------------6----|
G||----------------------|----------------------|--5----7----8---------|
D||----------------------|-------5----7----8----|----------------------|
A||------------5----6----|--8-------------------|----------------------|
E||--6----8--------------|----------------------|----------------------|

-------5----6----5----|----------------------|----------------------|
--8-------------------|--8----6--------------|----------------------|
----------------------|------------8----7----|--5-------------------|
----------------------|----------------------|-------8----7----5----|
----------------------|----------------------|----------------------|
----------------------|----------------------|----------------------|

----------------------|-------||
----------------------|-------||
----------------------|-------||
----------------------|-------||
--8----6----5---------|-------||
-----------------8----|--6----||

Escala Maior de Guitarra Si Maior (B Maior):

escala maior

Tab

E||----------------------|----------------------|----------------------|
B||----------------------|----------------------|-----------------7----|
G||----------------------|----------------------|--6----8----9---------|
D||----------------------|-------6----8----9----|----------------------|
A||------------6----7----|--9-------------------|----------------------|
E||--7----9--------------|----------------------|----------------------|

-------6----7----6----|----------------------|----------------------|
--9-------------------|--9----7--------------|----------------------|
----------------------|------------9----8----|--6-------------------|
----------------------|----------------------|-------9----8----6----|
----------------------|----------------------|----------------------|
----------------------|----------------------|----------------------|

----------------------|-------||
----------------------|-------||
----------------------|-------||
----------------------|-------||
--9----7----6---------|-------||
-----------------9----|--7----||

Artigo sobre Tablatura de Escala Maior para Guitarra editador e atualizado por JP – PortalMúsica.

Gostou? Compartilhe!

Você pode gostar também:

4 Comentários para “Tablatura de Escala Maior para Guitarra”

  1. Valker disse:

    Muito bom !!parabéns!!

  2. Francisco disse:

    Muito bom o material!!!!

Trackbacks/Pingbacks

  1. [...] mas que é na verdade derivada da escala pentatônica menor. Também já fizemos post sobre a Escala Maior, Pentatônica Maior, Escala Menor, Pentatônica Menor, Menor Harmônica e Melódica [...]

  2. [...] Se for do seus interesse, acesse esses links para maiores detalhes sobre essas escalas: Escala Menor e Escala Maior. [...]


Deixar Comentário

Opine Já!

O que você quer ver no Portal Música?

Ver Resultados

Loading ... Loading ...

Estamos no Facebook