Músicas Fáceis para tocar no Baixo

Olá, neste artigo iremos tratar sobre músicas fáceis para tocar no baixo, porque, muitas vezes, quando estamos aprendendo a tocar baixo, ficamos sem muita paciência em ficar martelando com escalas ou outros exercícios chatos. Você deseja tocar uma música de verdade, certo? Isso é o que todo mundo quer após ter comprado seu instrumento enquanto se inicia no aprendizado.

Vamos ver então algumas músicas fáceis para tocar no baixo com comentário e tablaturas em cada música.

Músicas Fáceis para tocar no baixo

 

U2 – With or Without You

Esta música tem uma grande sintonia para os iniciantes começarem a pegar. Em primeiro lugar, só tem 4 notas (e eu vou dar a você de graça – elas são D, A, B e G) e cada nota é tocada em um compasso de cada vez, em linha reta na oitava nota. Portanto, este é um bom treino para fazer o plucking hand ou puxada e certificar-se que cada nota que você tocar será uniforme e consistente.

s = slide

[-----------------------------------------------------------------------------
[-----------------------------------------------------------------------------
[-----------------------------------------------------------------------------
[-10-10-10-10-10-10-10-10-s-5-5-5-5-5-5-5-5-s-7-7-7-7-7-7-7-7-s-3-3-3-3-3-3-3-3

Obs.: Fique repetindo isto.
Você pode se exercitar quantas vezes quiser tocando isto. Agora vamos ver outras músicas fáceis para tocar no baixo só que um pouco mais desafiadoras.

 

Ben E. King – Stand By Me

Esta canção tem algumas notas a mais do que a música anterior, mas ainda é uma canção muito simples e ela contém os elementos básicos que você precisa saber. Uma vez que você conseguir tocar esse padrão (pattern), então repita e repita até que consiga uma boa sinotonia desde  o começo até o fim.

G -----------------------------------------------------------------------
D -7---7-----6-7---7---7-6-4---4-----4---4---4-------------4----------6-7
A ---------7-----------------------4-----------7-5---5---5---7---7---7---
E -----------------------------------------------------------------------

G ---------6-6------------------------------------------6-6---------6-9-6-
D ---7---9-----9-7-7-6-4-4---6---4--------------9--9-9----------7-9-------
A -7-------------------------------7-5-5---5-7----------------7-----------
E ------------------------------------------------------------------------

G -14-16-18-16-14-14-13-11-11---13---11-9-7-7---7-9---16--16-16-18-18--
D ---------------------------------------------------------------------
A ---------------------------------------------------------------------
E ---------------------------------------------------------------------

G -16-14-13-11-9-7-6-9---
D ---------------------7-
A -----------------------
E -----------------------

Obs.: Aquela primeira curta parte é a que é tocada durante a música toda. Na segunda longa parte é apenas algo opcional que você pode tocar próximo do final. Divirta-se.

 

The Police – Every Breath You Take

Assim como ocorre com a música do U2 ela tem um monte de uma oitava, então é um bom exame de valiação para o seu plucking, e certificar de que todas as notas estão sendo bem tocadas.

Verso

G---------------------
D---------------------
A-------------5---7---
E----5----2---------5-
toque a primeira e a segunda nota 16x cada
e as próximas duas 8x
e a última nota  16x

Verso Fill

G---------------------
D-------------------4-
A-------------5---7---
E----5----2-----------

Refrão "oh can't you see.." bit

G-----------------
D-----------------
A-5-3-0-2-7-------
E-----------------
toque a primeira e a segunda nota 8x
e as três últimas 16x

Bridge

G-----------------------------|-----------------------------
D-3-3-3--3-3-3--3-3-3--3-3-3--|------3------3------3------3-
A------3------3------3------3-|-3-3-3--3-3-3--3-3-3--3-3-3--
E-----------------------------|-----------------------------
toque 2x

Segundo Fill

G--------------------------------------------------------------------
D4444444444444444-------------------44444444444444444-------44444444-
A----------------55555555-77777777----------------------------------5
E----------------------------------------------------2222222---------
toque uma vez

tocando na ordem
verso x1
verso fill x1
verso x1
Refrão x1
verso fill x1
bridge x2
verso fill x1
verso x1
Refrão x1
verso fill x1
segundo fill x1
verso till final

Então se você estava atrás de algo para treinar no baixo mas sem ser exercícios padrões ou escalas, essas 3 com certeza são músicas fáceis para tocar no baixo. Com o tempo iremos fazer mais posts deste tipo, para receber mais novidades increva-se em nosso blog. Grande Abraço! Espero que tenham gostado deste artigo sobre músicas fáceis para tocar no baixo.

Deixe uma resposta

O seu endereço de email não será publicado Campos obrigatórios são marcados *


5 + = treze