Categorizado | Contra Baixo, Tablaturas

Fáceis tablaturas para baixo

fáceis tablaturas para contrabaixoVocê fica feliz quando encontra fáceis tablaturas para baixo voltadas para os iniciantes, mas a compreensão da teoria e da lógica por trás dessas tablaturas para baixo é uma necessidade absoluta. O baixo é uma combinação de contrabaixo e violão. Assim, ele desempenha um papel muito importante em qualquer grupo musical. O baixo controla o fluxo  o ritmo e a música e dá a qualquer composição uma necessária textura. Há três princípios ou estilos bastante básicos que você pode adotar ao tocar um baixo. Observe que cada estilo é único, e que você precisa ganhar um domínio sobre cada um deles para  se tornar um bom baixista.

A Levada ou O Groove

Entre uma grande variedade de fáceis tablaturas para baixo para aprender, o groove é o estilo mais importante. Tudo que você precisa fazer é dedilhar este padrão de acordo com o ritmo e textura e permanecer tocando na escala apropriada. Veremos uma lenta levada mas muito melodiosa que é o caso da canção Hotel California.

Introdução

Intro
G------------------------|------------------------|
D------------------------|------------------------|
A----9-----7-----5-------|----9-----7-----5-------|
E-7-----5-----3-----0--2-|-7-----5-----3-----0--2-|

Verso 1

G--------------11---11----|-------------9--9---|-------------7--7---|--------------------
D---9--9-----11---11--11--|---7--7-----9--9-9--|---5--5-----7--7-7--|---2--2------4--4--4
A--9--9--9--9-----------9-|--7--7--7--7------7-|--5--5--5--5------5-|--2--2--2---4--4--4-
E-7-----------------------|-5------------------|-3------------------|-0---------2--------

G--------------11---11----|-------------9--9---|-------------7--7---|------------------|
D---9--9-----11---11--11--|---7--7-----9--9-9--|---5--5-----7--7-7--|---2--2------4--4-|
A--9--9--9--9-----------9-|--7--7--7--7------7-|--5--5--5--5------5-|--2--2--2---4--4--|
E-7-----------------------|-5------------------|-3------------------|-0---------2------|

Refrão 1

G----------2/7-7----7--7-|--------------------|
D-5----5--5-----7--7--7--|-4----4--4-----0-24-|
A--5--5--5-------5-------|--4--4--4--2-4------|
E---3--------------------|---2----------------|

G----------2/7-7----7--7-|------------------|
D-5----5--5-----7--7--7--|-2----2--2-4-4/16-|
A--5--5--5-------5-------|--2--2--2---------|
E---3--------------------|---0--------------|



O estilo groove foi amplamente usado pelo famoso baixista Jaco Pastorious. A chave está em observar o dedilhar do guitarrista ou o pianista e agrupar as notas de acordo. Se o guitarrista mantém uma batida, como 1-2-3, 1-2-3, então toque um groove que tem as menores notas no começo  e as notas maiores no final. Essas levadas são encontradas em todas as canções de rock antigo e até mesmo nas músicas de jazz. Alguns baixistas como John Myung do Dream Theater tocam em todos os três estilos. Mas se você está procurando por tablaturas para baixo que sejam simples de tocar, não há nada mais agradável do que velhos grooves.

 Gallup (tercina)

O gallup/tercina é mais freqüentemente observado no cenário do heavy metal. Steve Harris do Iron Maiden é um dos baixistas mais conhecidos nessa técnica. Essa técnica é bastante difícil e vai exigir uma prática considerável da sua mão direita. Aqui está uma tablatura para baixo fácil de tocar. É o baixo da música “Coming Back to Life” do Pink Floyd e tem um ritmo muito lento.

.....shining sun
G||-------------------------------------------
D||-------------------------------------------
A||----------3-3-3-3-3-3-3-3--3-3-3-3-3-3-3-3-
E||-------------------------------------------

G||----------------------------------
D||----------------------------------
A||-3-3-3-3-3-3-3-3--3-3-3-3-3-3-3---
E||--------------------------------3-

lost in thought....
G||------------------------------------
D||-----------------------------5------
A||-3-3-3-3-3-3-3-3--3-3-3-3-3/7-7\3-3-
E||------------------------------------

G||--------------------------------------
D||--------------------------------------
A||--------------------------------------
E||-1-1-1-1-1-1-5/8-5--8\1-1-1-1-1-1-1-3-

while the seeds of....
G||----------------------------------
D||----------------------------------
A||-0-0-0-0-0-0-0-0------------------
E||------------------3-3-3-3-3-3-3-0-

G||----------------------------------
D||----------------------------------
A||----------------------------------
E||-1-1-1-1-1-1-1-1--1-1-1-1-1-1-1-3-

outside the rain.....
G||------------------------------------
D||-----------------------------5------
A||-3-3-3-3-3-3-3-3--3-3-3-3-3/7-7\3-3-
E||------------------------------------

G||----------------------------------
D||---------------------------------
A||----------------------------------
E||-1-1-1-1-1-1-1-1--1-1-1-1-1-1-1-3-

while I pondered....
G||----------------------------------
D||----------------------------------
A||-0-0-0-0-0-0-0-0------------------
E||------------------3-3-3-3-3-3-3-0-

G||----------------------------------
D||----------------------------------
A||----------------------------------
E||-1-1-1-1-1-1-1-1--1-1-1-1-1-1-1-3-

I took a heavenly...
G||----------------------------------
D||----------------------------------
A||----------------------------------
E||-5-5-5-5-5-5-5\1--1-1-1-1-1-1-1-3-

G||----------------------------------
D||----------------------------------
A||-0-0-0-0-0-0-0-0--1-1-1-1-1-1-1-1-
E||----------------------------------

for killing the past...
G||---------------------------------
D||---------------------------------
A||-0-0-0-0-0-0-0-0-------------0h2-
E||-----------------3-3-3-3-3-3-----

G||----------------------------------
D||----------------------------------
A||-3-3-3-3-3-3-3-3--3-3-3-3-3-3-3---
E||--------------------------------3-

Essa tercina  é extremamente lenta, e quase letárgica, mas a melodia é incrivelmente mágica!

Solando

Tocar um solo num baixo é muito difícil e isso exigiria um pouco de prática para realizá-lo. Os solos nesses casos são usados nas intro das músicas ou em desfechos. Há baixistas que seguem um solo de guitarra. A seguir, veremos um solo de introdução de John Myung da música Solar Groove.

G|------9-------4---|-----7-------5---|-----7-----5-----|-4-----5-----4----|
D|o---7---7---6---6-|---5---5---4---4-|---3---3-----3---|---3-----3-----3-o|
A|o-0-------0-------|-0-------0-------|-0-------0-----0-|-----0-----0-----o|
E|------------------|-----------------|-----------------|------------------|



Esperamos que esse artigo sobre fáceis tablaturas para baixo possa ter lhe ajudado. A chave para se tornar um baixista muito bom é começar a seguir o ritmo e as escalas. Deve-se notar que tocar apenas tablaturas para baixo não será suficiente. Você também terá que levar em consideração a melodia e o sentimento da música. Práticas disciplinadas e esforços consistentes com escalas e tablaturas irá ajudá-lo a implementar uma grande linha de baixo para uma música. Um aspecto muito importante na hora de tocar baixo é a paciência e a concentração.

Artigo sobre  Fáceis tablaturas para baixo editado por JP – PortalMúsica

Gostou? Compartilhe!

Você pode gostar também:

2 Comentários para “Fáceis tablaturas para baixo”

  1. Luisao Bass disse:

    Muito bom dá pra absorver a treinar com dedicação

  2. victor disse:

    eu so queria achar uma tablatura ou cifra q fosse igual o de violao

Trackbacks/Pingbacks


Deixar Comentário

Opine Já!

O que você quer ver no Portal Música?

Ver Resultados

Loading ... Loading ...

Estamos no Facebook