Fáceis Riffs de Guitarra

O título diz tudo, são fáceis riffs de guitarra para você aprender, bem, alguns riffs/introduções podem até serem qualificados como nível intermediário, mas com certeza são fáceis de tocar, e no geral são riffs para iniciantes. Esperamos que vocês gostem, Enjoy It!

Nirvana – Smells Like Teen Spirit (fácil)

Parte 1 - Toque duas vezes 
E|----------------------------------------------------------|
B|----------------------------------------------------------|
G|------8--10-\8-----8--8br--6--5--6--5---------------------|
D|--10------------6----------------------8--6--8--8br--6--5-|
A|----------------------------------------------------------|
E|----------------------------------------------------------| X 2

Parte 2 
E|----------------------------------------------------------|
B|----------------------------------------------------------|
G|----------------------------------------------------------|
D|--6-5-6-5-6-5-6-5-----6-5-6-5-6-5-6-5---------------------|
A|------------------8-------------------8-------------------|
E|----------------------------------------------------------| X 2

 

Deep Purple – Smoke on the Water (fácil)

E|-----------------------------------------|
B|-----------------------------------------|
G|-----3--5------3--6--5------3--5---3-----|
D|--5--3--5---5--3--6--5---5--3--5---3--5--|
A|--5---------5------------5------------5--|
E|-----------------------------------------|

 

Creedence Clearwater Revival – Who’ll Stop the Rain (fácil)

Guitarra Solo

E|--------3--|
B|--0--------|
G|-----0-----|
D|-----------|
A|-----------|
E|-----------|  X 5

Guitarra Base

E|--3--|--2--|--0--|
B|--0--|--3--|--0--|
G|--0--|--2--|--0--|
D|--0--|--0--|--2--|
A|--2--|--0--|--2--|
E|--3--|--0--|--0--|

 |--G--|--D--|--Em-|

 

Metallica – One (intermediário)

E|------------------------------------------------------------------------|
B|------------------------------------------------------------------------|
G|---------------------------------------------------------------------0--|
D|----4-----0--(0)-----4-----0--(0)------4-----0--(0)-----4-----0--(0)----|
A|-2-----2----------------------------2-----2-----------------------------|
E|------------------3-----3----------------------------3-----3------------|

E|--------------------------------------------------------------------|
B|--------------------------------------------------------------------|
G|--------------------------------------------------------------------|
D|----4------0--(0)------4-----0--(0)------4-----0--(0)---------------|
A|-2-----2------------0-----0--------------------------------2-----2--|
E|--------------------------------------3-----3-----------0-----2-----|

 

Metallica – Enter Sandman (fácil)

E|---------------------|
B|---------------------|
G|-------0-------------|
D|---------------------|
A|----7-----------7----|
E|-0--------6--5-------| X 12

 

Roy Orbison – Pretty Woman (fácil)

Parte 1

E|------------|
B|------------|
G|------------|
D|---------0--|
A|-------2----|
E|-0-0-4------|

Parte 2

E|-----------------|
B|-----------------|
G|-----------------|
D|---------0-4-2-0-|
A|-------2---------|
E|-0-0-4-----------|

 

Nirvana – In Bloom (fácil)

Introdução

E|--------------------------------------|
B|--------------------------------------|
G|--3----3--3--0------------------------|
D|--3----3--3--0--5-----3--3--3-/-6--6--|
A|--1----1--1--0--5-----3--3--3-/-6--6--|
E|----------------3-----1--1--1-/-4--4--|

Verso

E|--------------------------------------------------------------|
B|--------------------------------------------------------------|
G|--3-3-3-3-3--x-x-------------x-x--8-8-8-8-8-x-x--4-4-4-2-2-2--|
D|--3-3-3-3-3--x-x--5-5-5-5-5--x-x--8-8-8-8-8-x-x--4-4-4-2-2-2--|
A|--1-1-1-1-1--x-x--5-5-5-5-5--x-x--6-6-6-6-6-x-x--2-2-2-0-0-0--|
E|-------------x-x--2-2-2-2-2--x-x------------x-x---------------|

 

Pearl Jam – Alive (intermediário)

Intro Parte 1 e 2: 
E|-----------------------------|------------------------------------|
B|-----------------------------|------------------------------------|
G|--0--0--2--------------------|--0-0-0-2---------------------------|
D|--0--0--2---------0-7-h-9--7-|--0-0-0-2-------0-7-h-9-7-9b(10)-7--|
A|--------0--3-/-7-------------|--------0-3-/-7---------------------|
E|-----------------------------|------------------------------------|

Intro Parte 3 e 4 
E|--------------------------|------------------------------------|
B|--------------------------|------------------------------------|
G|--0--2--------------------|--0-0-0-2---------------------------|
D|--0--2---------0-7-h-9--7-|--0-0-0-2-------0-7-h-9-7-9b(10)-7--|
A|-----0--3-/-7-------------|--------0-3-/-7---------------------|
E|--------------------------|------------------------------------|

 

Pink Floyd – Wish You Were Here (intermediário)

E|-----------------3--3--3--3---------------3--3--3--3--|
B|-----------------3--3--3--3---------------3--3--3--3--|
G|-----------------0--0--0--0----0----------0--0--0--0--|
D|-----------0-h-2-------------2----2--0----------------|
A|-----0-h-2--------------------------------------------|
E|--3---------------------------------------------------|  X 2

 

Led Zepplin – Stairway to Heaven (avançado)

Parte 1

E|--------5--7------7--8-------8--|
B|------5-------5---------5-------|
G|----5-----------5---------5-----|
D|--7--------6---------5----------|
A|--------------------------------|
E|--------------------------------|

Parte 2

E|--------5--7------7--8-------8--|
B|------5-------5---------5-------|
G|----5-----------5---------5-----|
D|--7--------6---------5----------|
A|--------------------------------|
E|--------------------------------|

 

Phish – Simple (intermediário)

E|-----------------------|
B|-----------------------|
G|------------------2----|
D|----3~~--------------3-|
A|---------1--2--3-------|
E|--1--------------------|

Para mais sugestões de outros fáceis riffs de guitarra, mantenha contato com a gente!

Artigo sobre Fáceis Riffs de Guitarra escrito e editado por JP – PortalMúsica

Comentários

Deixe uma resposta

O seu endereço de email não será publicado Campos obrigatórios são marcados *


6 × seis =