Categorizado | Tablaturas, Violão

Fáceis Cifras e Tablaturas para Violão

Fala pessoal, neste artigo então vou colocar algumas fáceis cifras e tablaturas para violão, espero que vocês consigam tocar bem!

Fáceis Cifras e Tablaturas para Violão

Bob Dylan – Knocking On Heavens Door


Cifra:
Acordes usados:

(G)  (D)  (C)  (Am7)
-3-  -X-  -X-   -5-
-5-  -5-  -3-   -7-
-5-  -7-  -5-   -5-
-4-  -7-  -5-   -5-
-3-  -7-  -5-   -8-
-3-  -5-  -3-   -5-

Introdução: G, D, C 2x
Verso 1:

G        D                      Am7
   Momma take this badge off of me

G          D            Am7
   I can’t use it any more

G              D                Am7
   Its getting dark to dark to see

G            D                     Am7
   I feel im knocking on heavens door

Refrão:

G                D                     Am7
   Knock, knock, knocking on heavens door

G                D                     C
   Knock, knock, knocking on heavens door

G                D                     Am7
   Knock, knock, knocking on heavens door

G                D                     C
   Knock, knock, knocking on heavens door

Verso 2:

G        D                      Am7
   Momma put my guns in the ground

G         D               Am7
   I cant shoot them anymore

G            D                     Am7
   That long black clouds coming down

G            D                     Am7
   I feel im knocking on heavens door

Repita o refrão e diminua gradativamente

Bob Marley – Redemption


Cifra:

----------------|----------------|--------------------|------------|
----------------|----------------|--------------------|------------|
----------------|----------------|--------------------|------------|
----------------|------2---O-----|--------------O-----|------------|
------O---2-----|--3-----------2-|------O---2-------2-|--3---O-----|
--3-----------3-|----------------|--3-----------------|----------3-|

----------------|----------------|----------------|------------|
----------------|----------------|----------------|------------|
----------------|----------------|----------------|------------|
----------------|------2---O-----|--------------O-|------------|
------O---2-----|--3-----------2-|------O---2-----|--3---O-----|
--3-----------3-|----------------|--3-------------|----------3-|

    G                      Em7
Old Pirates, yes, they rob I.
    C         G/B             Am
Sold I to the merchant ships
G                      Em  C         G/B       Am
minutes after they took I   from the bottomless pit.
       G            Em7
But my hand was made strong
C           G/B          Am
By the hand of the Almighty.
     G                  Em   C          D
We forward in this generation triumphantly.

Refrão
                         G  C    D          G
   Won't you help to sing    these songs of freedom?
          C     D       Em  C   D      G
   'Cause all I ever had,    redemption songs,
  C   D      G        C
   redemption songs.
D     G                           Em7
Emancipate yourselves from mental slavery,
           C           G/B             Am
None but ourselves can free our minds.
       G                    Em
Have no fear for atomic energy,
              C         G/B            Am
'Cause none of them can stop the time.
    G                        Em7
How long shall they kill our prophets
        C       G/B            Am
While we stand aside and look?
             G            Em
Yes, some say it's just a part of it.
      C                 D
We've got to fulfill the book.

 

Green Day – Good Riddance (time of your life)


Tab:

Acordes
   G    C    Cadd9 D     Em
e|-3----0----0-----2-----0---------------------------------------|
B|-3----1----3-----3-----0---------------------------------------|
G|-0----0----0-----2-----0---------------------------------------|
D|-0----2----2-----0-----2---------------------------------------|
A|-2----3----3-----0-----2---------------------------------------|
E|-3---------------------0---------------------------------------|

Introdução
   G				"Fuck"
e|---------------------------------------------------------------|
B|--------------------------------------------------------------|
G|-------0--------------0----------------------------------------|
D|----------0--------------0-------------------------------------|
A|---------------------------------------------------------------|
E|-3--3-----------3--3-------------------------------------------|

Verso (vocal entra na terceira parte)
   G                             Cadd9          D
e|---------------------------------------------------------------|
B|-------3--------------3--------------3--------------3----------|
G|--------------0--------------0-------------0--------------2----|
D|------------0--------------0-------------2----0--0------0------|
A|-------------------------------3--3----------------------------|
E|-3--3-----------3--3-------------------------------------------|

Pre-Refrão (2x)
   Em             D              Cadd9          G
e|---------------------------------------------------------------|
B|-------0--------------3--------------3--------------3----------|
G|------------0----------------2-------------0---------------0---|
D|----------2-----0--0-------0-------------2---------------0-----|
A|-------------------------------3--3----------------------------|
E|-0--0-----------------------------------------3--3-------------|

Refrão
   Em             G         (2x) Em             D
e|---------------------------------------------------------------|
B|-------0--------------3--------------0--------------3----------|
G|-------------0---------------0-------------0---------------2---|
D|-----------2---------------0-------------2----0--0-------0-----|
A|---------------------------------------------------------------|
E|-0--0-----------3--3-----------0--0----------------------------|

Bem pessoal espero que tenham gostado da seleção de música, e com certeza são fáceis cifras de serem tocadas, abraço!

Gostou? Compartilhe!

Você pode gostar também:

Um Comentário para “Fáceis Cifras e Tablaturas para Violão”

Trackbacks/Pingbacks

  1. [...] Esta tablatura não foi copiada de algum lugar ou outra partitura e sim tirada de ouvido, revisei e não encontrei nenhum erro, mas caso encontre algo de errado nos avise. O riff da tablatura abaixo no solo #2 serve para o guitarra base tocar. Esta é uma música original do Bob Dylan e já postamos a cifra dela anteriormente, que é uma versão acústica: Veja Aqui [...]


Deixar Comentário

Opine Já!

O que você quer ver no Portal Música?

Ver Resultados

Loading ... Loading ...

Estamos no Facebook