Escalas Menor de Guitarra

Olá, nesta vez faremos um post voltado para escalas menor de guitarra com tablaturas e figuras, espero que gostem. Lembramos também que mais pra frente postaremos mais escalas para guitarra, como harmônica menor, pentatônica menor e etc…

Escalas Menor de Guitarra

Escalas Menor de Guitarra em Dó Menor ( C menor):

escalas menor de guitarra

Tab

E||------------------------|-------------------------|-----------------------|
B||------------------------|-------------------------|------------------8----|
G||------------------------|-------------------------|--7----8----10---------|
D||------------------------|--------------8----10----|-----------------------|
A||-------------------8----|--10----11---------------|-----------------------|
E||--8----10----11---------|-------------------------|-----------------------|

-------------8----------|-----------------------|------------------------|
--9----11---------11----|--9----8---------------|------------------------|
------------------------|------------10----8----|--7---------------------|
------------------------|-----------------------|-------10----8----------|
------------------------|-----------------------|------------------11----|
------------------------|-----------------------|------------------------|

-------------------------|-------||
-------------------------|-------||
-------------------------|-------||
-------------------------|-------||
--10----8----------------|-------||
-------------11----10----|--8----||

Escalas Menor de Guitarra em Dó Sustenido Maior (C# Menor):

escalas menor de guitarra

Tab

E||------------------------|-------------------------|-----------------------|
B||------------------------|-------------------------|------------------9----|
G||------------------------|-------------------------|--8----9----11---------|
D||------------------------|--------------9----11----|-----------------------|
A||-------------------9----|--11----12---------------|-----------------------|
E||--9----11----12---------|-------------------------|-----------------------|

--------------9----------|------------------------|------------------------|
--10----12---------12----|--10----9---------------|------------------------|
-------------------------|-------------11----9----|--8---------------------|
-------------------------|------------------------|-------11----9----------|
-------------------------|------------------------|------------------12----|
-------------------------|------------------------|------------------------|

-------------------------|-------||
-------------------------|-------||
-------------------------|-------||
-------------------------|-------||
--11----9----------------|-------||
-------------12----11----|--9----||

Escalas Menor de Guitarra em Ré Menor ( D Menor):

escalas menor de guitarra

Tab

E||--------------------------|--------------------------|
B||--------------------------|--------------------------|
G||--------------------------|--------------------------|
D||--------------------------|--------------10----12----|
A||--------------------10----|--12----13----------------|
E||--10----12----13----------|--------------------------|

-------------------------|--------------10----------|--------------------------|
-------------------10----|--11----13----------13----|--11----10----------------|
--9----10----12----------|--------------------------|--------------12----10----|
-------------------------|--------------------------|--------------------------|
-------------------------|--------------------------|--------------------------|
-------------------------|--------------------------|--------------------------|

-------------------------|--------------------------|--------||
-------------------------|--------------------------|--------||
--9----------------------|--------------------------|--------||
-------12----10----------|--------------------------|--------||
-------------------13----|--12----10----------------|--------||
-------------------------|--------------13----12----|--10----||

Escalas Menor de Guitarra em Ré Sustenido Menor (D# Menor):

escalas menor de guitarra

Tab

E||--------------------------|--------------------------|
B||--------------------------|--------------------------|
G||--------------------------|--------------------------|
D||--------------------------|--------------11----13----|
A||--------------------11----|--13----14----------------|
E||--11----13----14----------|--------------------------|

--------------------------|--------------11----------|
--------------------11----|--12----14----------14----|
--10----11----13----------|--------------------------|
--------------------------|--------------------------|
--------------------------|--------------------------|
--------------------------|--------------------------|

--------------------------|--------------------------|
--12----11----------------|--------------------------|
--------------13----11----|--10----------------------|
--------------------------|--------13----11----------|
--------------------------|--------------------14----|
--------------------------|--------------------------|

--------------------------|--------||
--------------------------|--------||
--------------------------|--------||
--------------------------|--------||
--13----11----------------|--------||
--------------14----13----|--11----||

Escalas Menor de Guitarra em Mi Menor ou E Menor

escalas menor de guitarra

Tab

E||--------------------------|--------------------------|
B||--------------------------|--------------------------|
G||--------------------------|--------------------------|
D||--------------------------|--------------12----14----|
A||--------------------12----|--14----15----------------|
E||--12----14----15----------|--------------------------|

--------------------------|--------------12----------|
--------------------12----|--13----15----------15----|
--11----12----14----------|--------------------------|
--------------------------|--------------------------|
--------------------------|--------------------------|
--------------------------|--------------------------|

--------------------------|--------------------------|
--13----12----------------|--------------------------|
--------------14----12----|--11----------------------|
--------------------------|--------14----12----------|
--------------------------|--------------------15----|
--------------------------|--------------------------|

--------------------------|--------||
--------------------------|--------||
--------------------------|--------||
--------------------------|--------||
--14----12----------------|--------||
--------------15----14----|--12----||

Escalas Menor de Guitarra em Fá Menor (F Menor):

escalas menor de guitarra

Tab

E||----------------------|----------------------|----------------------|
B||----------------------|----------------------|-----------------1----|
G||----------------------|----------------------|--0----1----3---------|
D||----------------------|------------1----3----|----------------------|
A||-----------------1----|--3----4--------------|----------------------|
E||--1----3----4---------|----------------------|----------------------|

------------1---------|----------------------|----------------------|
--2----4---------4----|--2----1--------------|----------------------|
----------------------|------------3----1----|--0-------------------|
----------------------|----------------------|-------3----1---------|
----------------------|----------------------|-----------------4----|
----------------------|----------------------|----------------------|

----------------------|-------||
----------------------|-------||
----------------------|-------||
----------------------|-------||
--3----1--------------|-------||
------------4----3----|--1----||

Escalas Menor de Guitarra em Fá Sustenido Menor (F# Menor):

escalas menor de guitarra

Tab

E||----------------------|----------------------|----------------------|
B||----------------------|----------------------|-----------------2----|
G||----------------------|----------------------|--1----2----4---------|
D||----------------------|------------2----4----|----------------------|
A||-----------------2----|--4----5--------------|----------------------|
E||--2----4----5---------|----------------------|----------------------|

------------2---------|----------------------|----------------------|
--3----5---------5----|--3----2--------------|----------------------|
----------------------|------------4----2----|--1-------------------|
----------------------|----------------------|-------4----2---------|
----------------------|----------------------|-----------------5----|
----------------------|----------------------|----------------------|

----------------------|-------||
----------------------|-------||
----------------------|-------||
----------------------|-------||
--4----2--------------|-------||
------------5----4----|--2----||

Escalas Menor de Guitarra em Sol Menor (G Menor):

escalas menor de guitarra

Tab

E||----------------------|----------------------|----------------------|
B||----------------------|----------------------|-----------------3----|
G||----------------------|----------------------|--2----3----5---------|
D||----------------------|------------3----5----|----------------------|
A||-----------------3----|--5----6--------------|----------------------|
E||--3----5----6---------|----------------------|----------------------|

------------3---------|----------------------|----------------------|
--4----6---------6----|--4----3--------------|----------------------|
----------------------|------------5----3----|--2-------------------|
----------------------|----------------------|-------5----3---------|
----------------------|----------------------|-----------------6----|
----------------------|----------------------|----------------------|

----------------------|-------||
----------------------|-------||
----------------------|-------||
----------------------|-------||
--5----3--------------|-------||
------------6----5----|--3----||

Escalas Menor de Guitarra em Sol Sustenido Menor (G# Menor):

escalas menor de guitarra

Tab

E||----------------------|----------------------|----------------------|
B||----------------------|----------------------|-----------------4----|
G||----------------------|----------------------|--3----4----6---------|
D||----------------------|------------4----6----|----------------------|
A||-----------------4----|--6----7--------------|----------------------|
E||--4----6----7---------|----------------------|----------------------|

------------4---------|----------------------|----------------------|
--5----7---------7----|--5----4--------------|----------------------|
----------------------|------------6----4----|--3-------------------|
----------------------|----------------------|-------6----4---------|
----------------------|----------------------|-----------------7----|
----------------------|----------------------|----------------------|

----------------------|-------||
----------------------|-------||
----------------------|-------||
----------------------|-------||
--6----4--------------|-------||
------------7----6----|--4----||

Escalas Menor de Guitarra em Lá Menor (A Menor):

escalas menor de guitarra

Tab

E||----------------------|----------------------|----------------------|
B||----------------------|----------------------|-----------------5----|
G||----------------------|----------------------|--4----5----7---------|
D||----------------------|------------5----7----|----------------------|
A||-----------------5----|--7----8--------------|----------------------|
E||--5----7----8---------|----------------------|----------------------|

------------5---------|----------------------|----------------------|
--6----8---------8----|--6----5--------------|----------------------|
----------------------|------------7----5----|--4-------------------|
----------------------|----------------------|-------7----5---------|
----------------------|----------------------|-----------------8----|
----------------------|----------------------|----------------------|

----------------------|-------||
----------------------|-------||
----------------------|-------||
----------------------|-------||
--7----5--------------|-------||
------------8----7----|--5----||

Escalas Menor de Guitarra em Lá Sustenido Menor (A# Menor):

escalas menor de guitarra

Tab

E||----------------------|----------------------|----------------------|
B||----------------------|----------------------|-----------------6----|
G||----------------------|----------------------|--5----6----8---------|
D||----------------------|------------6----8----|----------------------|
A||-----------------6----|--8----9--------------|----------------------|
E||--6----8----9---------|----------------------|----------------------|

------------6---------|----------------------|----------------------|
--7----9---------9----|--7----6--------------|----------------------|
----------------------|------------8----6----|--5-------------------|
----------------------|----------------------|-------8----6---------|
----------------------|----------------------|-----------------9----|
----------------------|----------------------|----------------------|

----------------------|-------||
----------------------|-------||
----------------------|-------||
----------------------|-------||
--8----6--------------|-------||
------------9----8----|--6----||

Escalas Menor de Guitarra em Si Menor (B Menor):

escalas menor de guitarra

Tab

E||-----------------------|-----------------------|----------------------|
B||-----------------------|-----------------------|-----------------7----|
G||-----------------------|-----------------------|--6----7----9---------|
D||-----------------------|-------------7----9----|----------------------|
A||------------------7----|--9----10--------------|----------------------|
E||--7----9----10---------|-----------------------|----------------------|

-------------7----------|----------------------|-----------------------|
--8----10---------10----|--8----7--------------|-----------------------|
------------------------|------------9----7----|--6--------------------|
------------------------|----------------------|-------9----7----------|
------------------------|----------------------|-----------------10----|
------------------------|----------------------|-----------------------|

-----------------------|-------||
-----------------------|-------||
-----------------------|-------||
-----------------------|-------||
--9----7---------------|-------||
------------10----9----|--7----||

Artigo sobre Escalas Menor de Guitarra escrito e editado por JP – PortalMúsica

Gostou? Compartilhe!

Você pode gostar também:

3 Comentários para “Escalas Menor de Guitarra”

  1. Wagner disse:

    erro no texto –> “Dó Sustenido Maior (C# Menor):”

Trackbacks/Pingbacks

  1. [...] da escala pentatônica menor. Também já fizemos post sobre a Escala Maior, Pentatônica Maior, Escala Menor, Pentatônica Menor, Menor Harmônica e Melódica [...]

  2. [...] for do seus interesse, acesse esses links para maiores detalhes sobre essas escalas: Escala Menor e Escala [...]


Deixar Comentário

Opine Já!

O que você quer ver no Portal Música?

Ver Resultados

Loading ... Loading ...

Estamos no Facebook