Escalas de Guitarra Pentatônica Menor

Olá, tudo bem? desta vez faremos um post sobre a pentatônica menor, com tablaturas e figuras para você tocar e entender. Lembramos também que mais pra frente postaremos mais escalas para guitarra, como harmônica menor, blues  e etc..

 

Escala de Guitarra Pentatônica Menor em Dó ou C:

pentatônica menor

Tab

E||------------------------|------------------------|-------------8----------|
B||------------------------|------------------------|--8----11---------11----|
G||------------------------|-------------8----10----|------------------------|
D||------------------------|--8----10---------------|------------------------|
A||-------------8----10----|------------------------|------------------------|
E||--8----11---------------|------------------------|------------------------|

------------------------|------------------------|-------||
--8---------------------|------------------------|-------||
-------10----8----------|------------------------|-------||
------------------10----|--8---------------------|-------||
------------------------|-------10----8----------|-------||
------------------------|------------------11----|--8----||

 

Escala de Guitarra Pentatônica Menor em Dó Sustenido ou C#:

pentatônica menor

Tab

E||------------------------|------------------------|-------------9----------|
B||------------------------|------------------------|--9----12---------12----|
G||------------------------|-------------9----11----|------------------------|
D||------------------------|--9----11---------------|------------------------|
A||-------------9----11----|------------------------|------------------------|
E||--9----12---------------|------------------------|------------------------|

------------------------|------------------------|-------||
--9---------------------|------------------------|-------||
-------11----9----------|------------------------|-------||
------------------11----|--9---------------------|-------||
------------------------|-------11----9----------|-------||
------------------------|------------------12----|--9----||

 

Escala de Guitarra Pentatônica Menor em Ré ou D:

pentatônica menor

Tab

E||--------------------------|--------------------------|
B||--------------------------|--------------------------|
G||--------------------------|--------------10----12----|
D||--------------------------|--10----12----------------|
A||--------------10----12----|--------------------------|
E||--10----13----------------|--------------------------|

--------------10----------|--------------------------|
--10----13----------13----|--10----------------------|
--------------------------|--------12----10----------|
--------------------------|--------------------12----|
--------------------------|--------------------------|
--------------------------|--------------------------|

--------------------------|--------||
--------------------------|--------||
--------------------------|--------||
--10----------------------|--------||
--------12----10----------|--------||
--------------------13----|--10----||

 

Escala de Guitarra Pentatônica Menor em Ré Sustenido ou D#:

pentatônica menor

Tab

E||--------------------------|--------------------------|
B||--------------------------|--------------------------|
G||--------------------------|--------------11----13----|
D||--------------------------|--11----13----------------|
A||--------------11----13----|--------------------------|
E||--11----14----------------|--------------------------|

--------------11----------|--------------------------|
--11----14----------14----|--11----------------------|
--------------------------|--------13----11----------|
--------------------------|--------------------13----|
--------------------------|--------------------------|
--------------------------|--------------------------|

--------------------------|--------||
--------------------------|--------||
--------------------------|--------||
--11----------------------|--------||
--------13----11----------|--------||
--------------------14----|--11----||

 

Escala de Guitarra Pentatônica Menor em Mi ou E:

pentatônica menor

Tab

E||----------------------|----------------------|------------0---------|
B||----------------------|----------------------|--0----3---------3----|
G||----------------------|------------0----2----|----------------------|
D||----------------------|--0----2--------------|----------------------|
A||------------0----2----|----------------------|----------------------|
E||--0----3--------------|----------------------|----------------------|

----------------------|----------------------|-------||
--0-------------------|----------------------|-------||
-------2----0---------|----------------------|-------||
-----------------2----|--0-------------------|-------||
----------------------|-------2----0---------|-------||
----------------------|-----------------3----|--0----||

 

Escala de Guitarra Pentatônica Menor em Fá ou F:

pentatônica menor

Tab

E||----------------------|----------------------|------------1---------|
B||----------------------|----------------------|--1----4---------4----|
G||----------------------|------------1----3----|----------------------|
D||----------------------|--1----3--------------|----------------------|
A||------------1----3----|----------------------|----------------------|
E||--1----4--------------|----------------------|----------------------|

----------------------|----------------------|-------||
--1-------------------|----------------------|-------||
-------3----1---------|----------------------|-------||
-----------------3----|--1-------------------|-------||
----------------------|-------3----1---------|-------||
----------------------|-----------------4----|--1----||

 

Escala de Guitarra Pentatônica Menor em Fá Sustenido ou F#:

pentatônica menor

Tab

E||----------------------|----------------------|------------2---------|
B||----------------------|----------------------|--2----5---------5----|
G||----------------------|------------2----4----|----------------------|
D||----------------------|--2----4--------------|----------------------|
A||------------2----4----|----------------------|----------------------|
E||--2----5--------------|----------------------|----------------------|

----------------------|----------------------|-------||
--2-------------------|----------------------|-------||
-------4----2---------|----------------------|-------||
-----------------4----|--2-------------------|-------||
----------------------|-------4----2---------|-------||
----------------------|-----------------5----|--2----||

 

Escala de Guitarra Pentatônica Menor em Sol ou G:

pentatônica menor

Tab

E||----------------------|----------------------|------------3---------|
B||----------------------|----------------------|--3----6---------6----|
G||----------------------|------------3----5----|----------------------|
D||----------------------|--3----5--------------|----------------------|
A||------------3----5----|----------------------|----------------------|
E||--3----6--------------|----------------------|----------------------|
----------------------|----------------------|-------||
--3-------------------|----------------------|-------||
-------5----3---------|----------------------|-------||
-----------------5----|--3-------------------|-------||
----------------------|-------5----3---------|-------||
----------------------|-----------------6----|--3----||

 

Escala de Guitarra Pentatônica Menor em Sol Sustenido ou G#:

pentatônica menor

Tab

E||----------------------|----------------------|------------4---------|
B||----------------------|----------------------|--4----7---------7----|
G||----------------------|------------4----6----|----------------------|
D||----------------------|--4----6--------------|----------------------|
A||------------4----6----|----------------------|----------------------|
E||--4----7--------------|----------------------|----------------------|

----------------------|----------------------|-------||
--4-------------------|----------------------|-------||
-------6----4---------|----------------------|-------||
-----------------6----|--4-------------------|-------||
----------------------|-------6----4---------|-------||
----------------------|-----------------7----|--4----||

 

Escala de Guitarra Pentatônica Menor em Lá ou A:

pentatônica menor

Tab

E||----------------------|----------------------|------------5---------|
B||----------------------|----------------------|--5----8---------8----|
G||----------------------|------------5----7----|----------------------|
D||----------------------|--5----7--------------|----------------------|
A||------------5----7----|----------------------|----------------------|
E||--5----8--------------|----------------------|----------------------|

----------------------|----------------------|-------||
--5-------------------|----------------------|-------||
-------7----5---------|----------------------|-------||
-----------------7----|--5-------------------|-------||
----------------------|-------7----5---------|-------||
----------------------|-----------------8----|--5----||

 

Escala para Guitarra Pentatônica Menor em Lá Sustenido ou A#:

pentatônica menor

Tab

E||----------------------|----------------------|------------4---------|
B||----------------------|----------------------|--4----7---------7----|
G||----------------------|------------4----6----|----------------------|
D||----------------------|--4----6--------------|----------------------|
A||------------4----6----|----------------------|----------------------|
E||--4----7--------------|----------------------|----------------------|

----------------------|----------------------|-------||
--4-------------------|----------------------|-------||
-------6----4---------|----------------------|-------||
-----------------6----|--4-------------------|-------||
----------------------|-------6----4---------|-------||
----------------------|-----------------7----|--4----||

 

Escala de Guitarra Pentatônica Menor em Si ou B:

pentatônica menor

Tab

E||-----------------------|----------------------|-------------7----------|
B||-----------------------|----------------------|--7----10---------10----|
G||-----------------------|------------7----9----|------------------------|
D||-----------------------|--7----9--------------|------------------------|
A||-------------7----9----|----------------------|------------------------|
E||--7----10--------------|----------------------|------------------------|

----------------------|-----------------------|-------||
--7-------------------|-----------------------|-------||
-------9----7---------|-----------------------|-------||
-----------------9----|--7--------------------|-------||
----------------------|-------9----7----------|-------||
----------------------|-----------------10----|--7----||


Artigo sobre Escalas de Guitarra Pentatônica Menor escrito e editado por JP – PortalMúsica

Gostou? Compartilhe!

Você pode gostar também:

3 Comentários para “Escalas de Guitarra Pentatônica Menor”

  1. Everaldo disse:

    Bom dia só uma duvida qual é a diferenssa entre escala menor e pentatonica menor desculpe minha iguinorancia é que estou comessando.
    ex:pentatonica menor de A
    escala menor de A DESDE JÁ MEU MUINTO OBRIGADO

    • JP disse:

      Olá Everaldo

      A escala menor natural é composta de 7 notas (8 se considerar a oitava) e seus intervalos são esses: 1 – 1/2 – 1 – 1 – 1/2 – 1 – 1.
      A pentatônica é composta de 5, como o nome já diz. Os intervalos da pentatônica menor são 1 b3 4 5 e b7. É o mesmo que a menor natural sem o 2 e b6 (as duas notas que formam um trítono).
      Espero ter esclarecido sua dúvida!

Trackbacks/Pingbacks

  1. [...] menor. Também já fizemos post sobre a Escala Maior, Pentatônica Maior, Escala Menor, Pentatônica Menor, Menor Harmônica e Melódica [...]


Deixar Comentário

Opine Já!

O que você quer ver no Portal Música?

Ver Resultados

Loading ... Loading ...

Estamos no Facebook