Categorizado | Guitarra, Teoria Musical

Escalas de guitarra pentatônica maior

Olá, este será uma artigo sobre para pentatônica maior voltado para guitarra com tablaturas e figuras. Lembramos também que mais pra frente postaremos mais escalas para guitarra, como a pentatônima menor, escala menor e etc…

Escala de Guitarra Pentatônica Maior em Dó ou C

pentatônica maior

Tab

E||------------------------|-----------------------|-------------8----------|
B||------------------------|-----------------------|--8----10---------10----|
G||------------------------|-------------7----9----|------------------------|
D||------------------------|--7----10--------------|------------------------|
A||-------------7----10----|-----------------------|------------------------|
E||--8----10---------------|-----------------------|------------------------|

-----------------------|------------------------|-------||
--8--------------------|------------------------|-------||
-------9----7----------|------------------------|-------||
-----------------10----|--7---------------------|-------||
-----------------------|-------10----7----------|-------||
-----------------------|------------------10----|--8----||

Escala de Guitarra Pentônica Maior em Dó Sustenido ou C#

pentatônica maior

Tab

E||------------------------|------------------------|-------------9----------|
B||------------------------|------------------------|--9----11---------11----|
G||------------------------|-------------8----10----|------------------------|
D||------------------------|--8----11---------------|------------------------|
A||-------------8----11----|------------------------|------------------------|
E||--9----11---------------|------------------------|------------------------|

------------------------|------------------------|-------||
--9---------------------|------------------------|-------||
-------10----8----------|------------------------|-------||
------------------11----|--8---------------------|-------||
------------------------|-------11----8----------|-------||
------------------------|------------------11----|--9----||

Escala de Guitarra Pentônica Maior em Ré ou D

pentatônica maior

Tab

E||-------------------------|------------------------|--------------10----------|
B||-------------------------|------------------------|--10----12----------12----|
G||-------------------------|-------------9----11----|--------------------------|
D||-------------------------|--9----12---------------|--------------------------|
A||--------------9----12----|------------------------|--------------------------|
E||--10----12---------------|------------------------|--------------------------|

-------------------------|------------------------|--------||
--10---------------------|------------------------|--------||
--------11----9----------|------------------------|--------||
-------------------12----|--9---------------------|--------||
-------------------------|-------12----9----------|--------||
-------------------------|------------------12----|--10----||

Escala de Guitarra Pentônica Maior em Ré Sustenido ou D#

pentatônica maior

Tab

E||--------------------------|--------------------------|--------------11----------|
B||--------------------------|--------------------------|--11----13----------13----|
G||--------------------------|--------------10----12----|--------------------------|
D||--------------------------|--10----13----------------|--------------------------|
A||--------------10----13----|--------------------------|--------------------------|
E||--11----13----------------|--------------------------|--------------------------|

--------------------------|--------------------------|--------||
--11----------------------|--------------------------|--------||
--------12----10----------|--------------------------|--------||
--------------------13----|--10----------------------|--------||
--------------------------|--------13----10----------|--------||
--------------------------|--------------------13----|--11----||

Escala de Guitarra Pentônica Maior em Mi ou E

pentatônica maior

Tab

E||--------------------------|--------------------------|
B||--------------------------|--------------------------|
G||--------------------------|--------------11----13----|
D||--------------------------|--11----14----------------|
A||--------------11----14----|--------------------------|
E||--12----14----------------|--------------------------|

--------------12----------|--------------------------|
--12----14----------14----|--12----------------------|
--------------------------|--------13----11----------|
--------------------------|--------------------14----|
--------------------------|--------------------------|
--------------------------|--------------------------|

--------------------------|--------||
--------------------------|--------||
--------------------------|--------||
--11----------------------|--------||
--------14----11----------|--------||
--------------------14----|--12----||

Escala de Guitarra Pentônica Maior em Fá ou F

pentatônica maior

Tab

E||----------------------|----------------------|------------1---------|
B||----------------------|----------------------|--1----3---------3----|
G||----------------------|------------0----2----|----------------------|
D||----------------------|--0----3--------------|----------------------|
A||------------0----3----|----------------------|----------------------|
E||--1----3--------------|----------------------|----------------------|

----------------------|----------------------|-------||
--1-------------------|----------------------|-------||
-------2----0---------|----------------------|-------||
-----------------3----|--0-------------------|-------||
----------------------|-------3----0---------|-------||
----------------------|-----------------3----|--1----||

Escala de Guitarra Pentônica Maior em Fá Sustenido ou F#

pentatônica maior

Tab

E||----------------------|----------------------|------------2---------|
B||----------------------|----------------------|--2----4---------4----|
G||----------------------|------------1----3----|----------------------|
D||----------------------|--1----4--------------|----------------------|
A||------------1----4----|----------------------|----------------------|
E||--2----4--------------|----------------------|----------------------|

----------------------|----------------------|-------||
--2-------------------|----------------------|-------||
-------3----1---------|----------------------|-------||
-----------------4----|--1-------------------|-------||
----------------------|-------4----1---------|-------||
----------------------|-----------------4----|--2----||

Escala de Guitarra Pentônica Maior em Sol ou G

pentatônica maior

Tab

E||----------------------|----------------------|------------3---------|
B||----------------------|----------------------|--3----5---------5----|
G||----------------------|------------2----4----|----------------------|
D||----------------------|--2----5--------------|----------------------|
A||------------2----5----|----------------------|----------------------|
E||--3----5--------------|----------------------|----------------------|

----------------------|----------------------|-------||
--3-------------------|----------------------|-------||
-------4----2---------|----------------------|-------||
-----------------5----|--2-------------------|-------||
----------------------|-------5----2---------|-------||
----------------------|-----------------5----|--3----||

Escala de Guitarra Pentônica Maior em Sol Sustenido ou S#

pentatônica maior

Tab

E||----------------------|----------------------|------------4---------|
B||----------------------|----------------------|--4----6---------6----|
G||----------------------|------------3----5----|----------------------|
D||----------------------|--3----6--------------|----------------------|
A||------------3----6----|----------------------|----------------------|
E||--4----6--------------|----------------------|----------------------|

----------------------|----------------------|-------||
--4-------------------|----------------------|-------||
-------5----3---------|----------------------|-------||
-----------------6----|--3-------------------|-------||
----------------------|-------6----3---------|-------||
----------------------|-----------------6----|--4----||

Escala de Guitarra Pentônica Maior em Lá ou A

pentatônica maior

Tab

E||----------------------|----------------------|------------5---------|
B||----------------------|----------------------|--5----7---------7----|
G||----------------------|------------4----6----|----------------------|
D||----------------------|--4----7--------------|----------------------|
A||------------4----7----|----------------------|----------------------|
E||--5----7--------------|----------------------|----------------------|

----------------------|----------------------|-------||
--5-------------------|----------------------|-------||
-------6----4---------|----------------------|-------||
-----------------7----|--4-------------------|-------||
----------------------|-------7----4---------|-------||
----------------------|-----------------7----|--5----||


Escala de Guitarra Pentônica Maior em Lá Sustenido A#

pentatônica maior

Tab

E||----------------------|----------------------|------------6---------|
B||----------------------|----------------------|--6----8---------8----|
G||----------------------|------------5----7----|----------------------|
D||----------------------|--5----8--------------|----------------------|
A||------------5----8----|----------------------|----------------------|
E||--6----8--------------|----------------------|----------------------|

----------------------|----------------------|-------||
--6-------------------|----------------------|-------||
-------7----5---------|----------------------|-------||
-----------------8----|--5-------------------|-------||
----------------------|-------8----5---------|-------||
----------------------|-----------------8----|--6----||

Escala de Guitarra Pentônica Maior em Si ou B

pentatônica maior

Tab

E||----------------------|----------------------|------------7---------|
B||----------------------|----------------------|--7----9---------9----|
G||----------------------|------------6----8----|----------------------|
D||----------------------|--6----9--------------|----------------------|
A||------------6----9----|----------------------|----------------------|
E||--7----9--------------|----------------------|----------------------|

----------------------|----------------------|-------||
--7-------------------|----------------------|-------||
-------8----6---------|----------------------|-------||
-----------------9----|--6-------------------|-------||
----------------------|-------9----6---------|-------||
----------------------|-----------------9----|--7----||

Espero que dê para vocês praticarem legal essas tablaturas da escala pentatônica para pode ter uma noção maior.

Post sobre Escalas de guitarra pentatônica maior criado e editado por JP – PortalMúsica

Gostou? Compartilhe!

Você pode gostar também:

Um Comentário para “Escalas de guitarra pentatônica maior”

Trackbacks/Pingbacks

  1. [...] é na verdade derivada da escala pentatônica menor. Também já fizemos post sobre a Escala Maior, Pentatônica Maior, Escala Menor, Pentatônica Menor, Menor Harmônica e Melódica [...]


Deixar Comentário

Opine Já!

O que você quer ver no Portal Música?

Ver Resultados

Loading ... Loading ...

Estamos no Facebook