Escala de Guitarra Menor Harmônica

Olá, desta vez publicamores um post sobre Escala de Guitarra Menor Harmônica, com tablaturas e imagens, espero que gostem. Lembramos também que mais pra frente postaremos as escalas restantes como a menor melódica e blues.

Escala de Guitarra Menor Harmônica em Dó ou C

escala de guitarra menor harmônica

 

 

Tab

E||------------------------|-------------------------|-----------------------|
B||------------------------|-------------------------|------------------8----|
G||------------------------|-------------------------|--7----8----10---------|
D||------------------------|--------------9----10----|-----------------------|
A||-------------------8----|--10----11---------------|-----------------------|
E||--8----10----11---------|-------------------------|-----------------------|

-------7----8----7----|-----------------------|------------------------|
--9-------------------|--9----8---------------|------------------------|
----------------------|------------10----8----|--7---------------------|
----------------------|-----------------------|-------10----9----------|
----------------------|-----------------------|------------------11----|
----------------------|-----------------------|------------------------|

-------------------------|-------||
-------------------------|-------||
-------------------------|-------||
-------------------------|-------||
--10----8----------------|-------||
-------------11----10----|--8----||

Escala de Guitarra Menor Harmônica em Dó Sustenido ou C#

escala de guitarra menor harmônica

 

 

Tab

E||------------------------|--------------------------|-----------------------|
B||------------------------|--------------------------|------------------9----|
G||------------------------|--------------------------|--8----9----11---------|
D||------------------------|--------------10----11----|-----------------------|
A||-------------------9----|--11----12----------------|-----------------------|
E||--9----11----12---------|--------------------------|-----------------------|

--------8----9----8----|------------------------|-------------------------|
--10-------------------|--10----9---------------|-------------------------|
-----------------------|-------------11----9----|--8----------------------|
-----------------------|------------------------|-------11----10----------|
-----------------------|------------------------|-------------------12----|
-----------------------|------------------------|-------------------------|

-------------------------|-------||
-------------------------|-------||
-------------------------|-------||
-------------------------|-------||
--11----9----------------|-------||
-------------12----11----|--9----||

Escala de Guitarra Menor Harmônica em Ré ou D

escala de guitarra menor harmônica

 

 

 

Tab

E||--------------------------|--------------------------|
B||--------------------------|--------------------------|
G||--------------------------|--------------------------|
D||--------------------------|--------------11----12----|
A||--------------------10----|--12----13----------------|
E||--10----12----13----------|--------------------------|

-------------------------|--------9----10----9----|--------------------------|
-------------------10----|--11--------------------|--11----10----------------|
--9----10----12----------|------------------------|--------------12----10----|
-------------------------|------------------------|--------------------------|
-------------------------|------------------------|--------------------------|
-------------------------|------------------------|--------------------------|

-------------------------|--------------------------|--------||
-------------------------|--------------------------|--------||
--9----------------------|--------------------------|--------||
-------12----11----------|--------------------------|--------||
-------------------13----|--12----10----------------|--------||
-------------------------|--------------13----12----|--10----||

Escala de Guitarra Ré Sustenido ou D#

escala de guitarra menor harmônica

 

 

 

Tab

E||--------------------------|--------------------------|
B||--------------------------|--------------------------|
G||--------------------------|--------------------------|
D||--------------------------|--------------12----13----|
A||--------------------11----|--13----14----------------|
E||--11----13----14----------|--------------------------|

--------------------------|--------10----11----10----|
--------------------11----|--12----------------------|
--10----11----13----------|--------------------------|
--------------------------|--------------------------|
--------------------------|--------------------------|
--------------------------|--------------------------|

--------------------------|--------------------------|
--12----11----------------|--------------------------|
--------------13----11----|--10----------------------|
--------------------------|--------13----12----------|
--------------------------|--------------------14----|
--------------------------|--------------------------|

--------------------------|--------||
--------------------------|--------||
--------------------------|--------||
--------------------------|--------||
--13----11----------------|--------||
--------------14----13----|--11----||

Escala de Guitarra Menor Harmônica em Mi ou E

escala de guitarra menor harmônica

 

 

Tab

E||--------------------------|--------------------------|
B||--------------------------|--------------------------|
G||--------------------------|--------------------------|
D||--------------------------|--------------13----14----|
A||--------------------12----|--14----15----------------|
E||--12----14----15----------|--------------------------|

--------------------------|--------11----12----11----|
--------------------12----|--13----------------------|
--11----12----14----------|--------------------------|
--------------------------|--------------------------|
--------------------------|--------------------------|
--------------------------|--------------------------|

--------------------------|--------------------------|
--13----12----------------|--------------------------|
--------------14----12----|--11----------------------|
--------------------------|--------14----13----------|
--------------------------|--------------------15----|
--------------------------|--------------------------|

--------------------------|--------||
--------------------------|--------||
--------------------------|--------||
--------------------------|--------||
--14----12----------------|--------||
--------------15----14----|--12----||

Escala de Guitarra Menor Harmônica em Fá ou F

escala de guitarra menor harmônica

 

 

Tab

E||--------------------------|--------------------------|
B||--------------------------|--------------------------|
G||--------------------------|--------------------------|
D||--------------------------|--------------14----15----|
A||--------------------13----|--15----16----------------|
E||--13----15----16----------|--------------------------|

--------------------------|--------12----13----12----|
--------------------13----|--14----------------------|
--12----13----15----------|--------------------------|
--------------------------|--------------------------|
--------------------------|--------------------------|
--------------------------|--------------------------|

--------------------------|--------------------------|
--14----13----------------|--------------------------|
--------------15----13----|--12----------------------|
--------------------------|--------15----14----------|
--------------------------|--------------------16----|
--------------------------|--------------------------|

--------------------------|--------||
--------------------------|--------||
--------------------------|--------||
--------------------------|--------||
--15----13----------------|--------||
--------------16----15----|--13----||

Escala de Guitarra Menor Harmônica em Fá Sustenido ou F#

escala de guitarra menor harmônica

 

 

Tab

E||----------------------|----------------------|----------------------|
B||----------------------|----------------------|-----------------2----|
G||----------------------|----------------------|--1----2----4---------|
D||----------------------|------------3----4----|----------------------|
A||-----------------2----|--4----5--------------|----------------------|
E||--2----4----5---------|----------------------|----------------------|

-------1----2----1----|----------------------|----------------------|
--3-------------------|--3----2--------------|----------------------|
----------------------|------------4----2----|--1-------------------|
----------------------|----------------------|-------4----3---------|
----------------------|----------------------|-----------------5----|
----------------------|----------------------|----------------------|

----------------------|-------||
----------------------|-------||
----------------------|-------||
----------------------|-------||
--4----2--------------|-------||
------------5----4----|--2----||

Escala de Guitarra Menor Harmônica em Sol ou G

escala de guitarra menor harmônica

 

 

Tab

E||----------------------|----------------------|----------------------|
B||----------------------|----------------------|-----------------3----|
G||----------------------|----------------------|--2----3----5---------|
D||----------------------|------------4----5----|----------------------|
A||-----------------3----|--5----6--------------|----------------------|
E||--3----5----6---------|----------------------|----------------------|

-------2----3----2----|----------------------|----------------------|
--4-------------------|--4----3--------------|----------------------|
----------------------|------------5----3----|--2-------------------|
----------------------|----------------------|-------5----4---------|
----------------------|----------------------|-----------------6----|
----------------------|----------------------|----------------------|

----------------------|-------||
----------------------|-------||
----------------------|-------||
----------------------|-------||
--5----3--------------|-------||
------------6----5----|--3----||

Escala de Guitarra Menor Harmônica em Sol Sustenido ou G#

escala de guitarra menor harmônica

 

 

Tab

E||----------------------|----------------------|----------------------|
B||----------------------|----------------------|-----------------4----|
G||----------------------|----------------------|--3----4----6---------|
D||----------------------|------------5----6----|----------------------|
A||-----------------4----|--6----7--------------|----------------------|
E||--4----6----7---------|----------------------|----------------------|

-------3----4----3----|----------------------|----------------------|
--5-------------------|--5----4--------------|----------------------|
----------------------|------------6----4----|--3-------------------|
----------------------|----------------------|-------6----5---------|
----------------------|----------------------|-----------------7----|
----------------------|----------------------|----------------------|

----------------------|-------||
----------------------|-------||
----------------------|-------||
----------------------|-------||
--6----4--------------|-------||
------------7----6----|--4----||

Escala de Guitarra Menor Harmônica em Lá ou A

escala de guitarra menor harmônica

 

 

Tab

E||----------------------|----------------------|----------------------|
B||----------------------|----------------------|-----------------5----|
G||----------------------|----------------------|--4----5----7---------|
D||----------------------|------------6----7----|----------------------|
A||-----------------5----|--7----8--------------|----------------------|
E||--5----7----8---------|----------------------|----------------------|

-------4----5----4----|----------------------|----------------------|
--6-------------------|--6----5--------------|----------------------|
----------------------|------------7----5----|--4-------------------|
----------------------|----------------------|-------7----6---------|
----------------------|----------------------|-----------------8----|
----------------------|----------------------|----------------------|

----------------------|-------||
----------------------|-------||
----------------------|-------||
----------------------|-------||
--7----5--------------|-------||
------------8----7----|--5----||

Escala de Guitarra Menor Harmônica em Lá Sustenido ou A#

escala de guitarra menor harmônica

 

 

Tab

E||----------------------|----------------------|----------------------|
B||----------------------|----------------------|-----------------6----|
G||----------------------|----------------------|--5----6----8---------|
D||----------------------|------------7----8----|----------------------|
A||-----------------6----|--8----9--------------|----------------------|
E||--6----8----9---------|----------------------|----------------------|

-------5----6----5----|----------------------|----------------------|
--7-------------------|--7----6--------------|----------------------|
----------------------|------------8----6----|--5-------------------|
----------------------|----------------------|-------8----7---------|
----------------------|----------------------|-----------------9----|
----------------------|----------------------|----------------------|

----------------------|-------||
----------------------|-------||
----------------------|-------||
----------------------|-------||
--8----6--------------|-------||
------------9----8----|--6----||

Escala de Guitarra Menor Harmônica em Si ou B

escala de guitarra menor harmônica

 

 

Tab

E||-----------------------|-----------------------|----------------------|
B||-----------------------|-----------------------|-----------------7----|
G||-----------------------|-----------------------|--6----7----9---------|
D||-----------------------|-------------8----9----|----------------------|
A||------------------7----|--9----10--------------|----------------------|
E||--7----9----10---------|-----------------------|----------------------|

-------6----7----6----|----------------------|-----------------------|
--8-------------------|--8----7--------------|-----------------------|
----------------------|------------9----7----|--6--------------------|
----------------------|----------------------|-------9----8----------|
----------------------|----------------------|-----------------10----|
----------------------|----------------------|-----------------------|

-----------------------|-------||
-----------------------|-------||
-----------------------|-------||
-----------------------|-------||
--9----7---------------|-------||
------------10----9----|--7----||

Artigo sobre Escala de Guitarra Menor Harmônica escrito e editado por JP – PortalMúsica

Trackbacks

Deixe uma resposta

O seu endereço de email não será publicado Campos obrigatórios são marcados *


sete + 6 =