Escala de guitarra menor melódica

Olá, este post será sobre e escala de guitarra menor melódica, com tablaturas e imagens para você tocar e entender. Anteriormente já tinhamos disponibilizado tablaturas para escala maior, pentatônica menor, pentatônica maior, escala menor, harmônica menor, e restando somente a escala de Blues que postaremos mais pela frente.

Escala de guitarra Menor Melódica em Dó ou C:

menor melódica

 

 

Tab

E||------------------------|------------------------|-----------------------|
B||------------------------|------------------------|------------------8----|
G||------------------------|------------------------|--7----8----10---------|
D||------------------------|--------7----9----10----|-----------------------|
A||-------------------8----|--10--------------------|-----------------------|
E||--8----10----11---------|------------------------|-----------------------|

--------7----8----7----|------------------------|-----------------------|
--10-------------------|--10----8---------------|-----------------------|
-----------------------|-------------10----8----|--7--------------------|
-----------------------|------------------------|-------10----9----7----|
-----------------------|------------------------|-----------------------|
-----------------------|------------------------|-----------------------|

-------------------------|-------||
-------------------------|-------||
-------------------------|-------||
-------------------------|-------||
--10----8----------------|-------||
-------------11----10----|--8----||

 

Escala de guitarra Menor Melódica em Dó Sustenido ou C#:

menor melódica

 

 

Tab

E||------------------------|-------------------------|-----------------------|
B||------------------------|-------------------------|------------------9----|
G||------------------------|-------------------------|--8----9----11---------|
D||------------------------|--------8----10----11----|-----------------------|
A||-------------------9----|--11---------------------|-----------------------|
E||--9----11----12---------|-------------------------|-----------------------|

--------8----9----8----|------------------------|------------------------|
--11-------------------|--11----9---------------|------------------------|
-----------------------|-------------11----9----|--8---------------------|
-----------------------|------------------------|-------11----10----8----|
-----------------------|------------------------|------------------------|
-----------------------|------------------------|------------------------|

-------------------------|-------||
-------------------------|-------||
-------------------------|-------||
-------------------------|-------||
--11----9----------------|-------||
-------------12----11----|--9----||

 

Escala de guitarra Menor Melódica em Ré ou D:

menor melódica

 

 

Tab

E||--------------------------|-------------------------|
B||--------------------------|-------------------------|
G||--------------------------|-------------------------|
D||--------------------------|--------9----11----12----|
A||--------------------10----|--12---------------------|
E||--10----12----13----------|-------------------------|

-------------------------|--------9----10----9----|--------------------------|
-------------------10----|--12--------------------|--12----10----------------|
--9----10----12----------|------------------------|--------------12----10----|
-------------------------|------------------------|--------------------------|
-------------------------|------------------------|--------------------------|
-------------------------|------------------------|--------------------------|

------------------------|--------------------------|--------||
------------------------|--------------------------|--------||
--9---------------------|--------------------------|--------||
-------12----11----9----|--------------------------|--------||
------------------------|--12----10----------------|--------||
------------------------|--------------13----12----|--10----||

 

Escala de guitarra Menor Melódica em Ré Sustenido ou D#:

menor melódica

 

 

Tab

E||--------------------------|--------------------------|
B||--------------------------|--------------------------|
G||--------------------------|--------------------------|
D||--------------------------|--------10----12----13----|
A||--------------------11----|--13----------------------|
E||--11----13----14----------|--------------------------|

--------------------------|--------10----11----10----|
--------------------11----|--13----------------------|
--10----11----13----------|--------------------------|
--------------------------|--------------------------|
--------------------------|--------------------------|
--------------------------|--------------------------|

--------------------------|--------------------------|
--13----11----------------|--------------------------|
--------------13----11----|--10----------------------|
--------------------------|--------13----12----10----|
--------------------------|--------------------------|
--------------------------|--------------------------|

--------------------------|--------||
--------------------------|--------||
--------------------------|--------||
--------------------------|--------||
--13----11----------------|--------||
--------------14----13----|--11----||

 

Escala de guitarra Menor Melódica em Mi ou E:

menor melódica

 

 

Tab

E||--------------------------|--------------------------|
B||--------------------------|--------------------------|
G||--------------------------|--------------------------|
D||--------------------------|--------11----13----14----|
A||--------------------12----|--14----------------------|
E||--12----14----15----------|--------------------------|

--------------------------|--------11----12----11----|
--------------------12----|--14----------------------|
--11----12----14----------|--------------------------|
--------------------------|--------------------------|
--------------------------|--------------------------|
--------------------------|--------------------------|

--------------------------|--------------------------|
--14----12----------------|--------------------------|
--------------14----12----|--11----------------------|
--------------------------|--------14----13----11----|
--------------------------|--------------------------|
--------------------------|--------------------------|

--------------------------|--------||
--------------------------|--------||
--------------------------|--------||
--------------------------|--------||
--14----12----------------|--------||
--------------15----14----|--12----||

 

Escala de guitarra Menor Melódica em Fá ou F:

menor melódica

 

 

Tab

E||--------------------------|--------------------------|
B||--------------------------|--------------------------|
G||--------------------------|--------------------------|
D||--------------------------|--------12----14----15----|
A||--------------------13----|--15----------------------|
E||--13----15----16----------|--------------------------|

--------------------------|--------12----13----12----|
--------------------13----|--15----------------------|
--12----13----15----------|--------------------------|
--------------------------|--------------------------|
--------------------------|--------------------------|
--------------------------|--------------------------|

--------------------------|--------------------------|
--15----13----------------|--------------------------|
--------------15----13----|--12----------------------|
--------------------------|--------15----14----12----|
--------------------------|--------------------------|
--------------------------|--------------------------|

--------------------------|--------||
--------------------------|--------||
--------------------------|--------||
--------------------------|--------||
--15----13----------------|--------||
--------------16----15----|--13----||

 

Escala de guitarra Menor Melódica em Fá Sustenido ou F#:

menor melódica

 

 

Tab

E||----------------------|----------------------|----------------------|
B||----------------------|----------------------|-----------------2----|
G||----------------------|----------------------|--1----2----4---------|
D||----------------------|-------1----3----4----|----------------------|
A||-----------------2----|--4-------------------|----------------------|
E||--2----4----5---------|----------------------|----------------------|

-------1----2----1----|----------------------|----------------------|
--4-------------------|--4----2--------------|----------------------|
----------------------|------------4----2----|--1-------------------|
----------------------|----------------------|-------4----3----1----|
----------------------|----------------------|----------------------|
----------------------|----------------------|----------------------|

----------------------|-------||
----------------------|-------||
----------------------|-------||
----------------------|-------||
--4----2--------------|-------||
------------5----4----|--2----||

 

Escala de guitarra Menor Melódica em Sol ou G:

menor melódica

 

 

Tab

E||----------------------|----------------------|----------------------|
B||----------------------|----------------------|-----------------3----|
G||----------------------|----------------------|--2----3----5---------|
D||----------------------|-------2----4----5----|----------------------|
A||-----------------3----|--5-------------------|----------------------|
E||--3----5----6---------|----------------------|----------------------|

-------2----3----2----|----------------------|----------------------|
--5-------------------|--5----3--------------|----------------------|
----------------------|------------5----3----|--2-------------------|
----------------------|----------------------|-------5----4----2----|
----------------------|----------------------|----------------------|
----------------------|----------------------|----------------------|

----------------------|-------||
----------------------|-------||
----------------------|-------||
----------------------|-------||
--5----3--------------|-------||
------------6----5----|--3----||

 

Escala de guitarra Menor Melódica em Sol Sustenido ou G#:

menor melódica

 

 

Tab

E||----------------------|----------------------|----------------------|
B||----------------------|----------------------|-----------------4----|
G||----------------------|----------------------|--3----4----6---------|
D||----------------------|-------3----5----6----|----------------------|
A||-----------------4----|--6-------------------|----------------------|
E||--4----6----7---------|----------------------|----------------------|

-------3----4----3----|----------------------|----------------------|
--6-------------------|--6----4--------------|----------------------|
----------------------|------------6----4----|--3-------------------|
----------------------|----------------------|-------6----5----3----|
----------------------|----------------------|----------------------|
----------------------|----------------------|----------------------|

----------------------|-------||
----------------------|-------||
----------------------|-------||
----------------------|-------||
--6----4--------------|-------||
------------7----6----|--4----||

 

Escala de guitarra Menor Melódica em Lá ou A:

menor melódica

 

 

Tab

E||----------------------|----------------------|----------------------|
B||----------------------|----------------------|-----------------5----|
G||----------------------|----------------------|--4----5----7---------|
D||----------------------|-------4----6----7----|----------------------|
A||-----------------5----|--7-------------------|----------------------|
E||--5----7----8---------|----------------------|----------------------|

-------4----5----4----|----------------------|----------------------|
--7-------------------|--7----5--------------|----------------------|
----------------------|------------7----5----|--4-------------------|
----------------------|----------------------|-------7----6----4----|
----------------------|----------------------|----------------------|
----------------------|----------------------|----------------------|

----------------------|-------||
----------------------|-------||
----------------------|-------||
----------------------|-------||
--7----5--------------|-------||
------------8----7----|--5----||

 

Escala de guitarra Menor Melódica em Lá Sustenido ou A#:

menor melódica

 

 

Tab

E||----------------------|----------------------|----------------------|
B||----------------------|----------------------|-----------------6----|
G||----------------------|----------------------|--5----6----8---------|
D||----------------------|-------5----7----8----|----------------------|
A||-----------------6----|--8-------------------|----------------------|
E||--6----8----9---------|----------------------|----------------------|

-------5----6----5----|----------------------|----------------------|
--8-------------------|--8----6--------------|----------------------|
----------------------|------------8----6----|--5-------------------|
----------------------|----------------------|-------8----7----5----|
----------------------|----------------------|----------------------|
----------------------|----------------------|----------------------|

----------------------|-------||
----------------------|-------||
----------------------|-------||
----------------------|-------||
--8----6--------------|-------||
------------9----8----|--6----||

 

Escala de guitarra Menor Melódica em Si ou B#:

menor melódica

 

 

Tab

E||-----------------------|----------------------|----------------------|
B||-----------------------|----------------------|-----------------7----|
G||-----------------------|----------------------|--6----7----9---------|
D||-----------------------|-------6----8----9----|----------------------|
A||------------------7----|--9-------------------|----------------------|
E||--7----9----10---------|----------------------|----------------------|

-------6----7----6----|----------------------|----------------------|
--9-------------------|--9----7--------------|----------------------|
----------------------|------------9----7----|--6-------------------|
----------------------|----------------------|-------9----8----6----|
----------------------|----------------------|----------------------|
----------------------|----------------------|----------------------|

-----------------------|-------||
-----------------------|-------||
-----------------------|-------||
-----------------------|-------||
--9----7---------------|-------||
------------10----9----|--7----||

Artigo sobre Escala de guitarra menor melódica escrito e editado por JP – Portal Música.

Comentários

  1. Patrick diz

    Excelente matéria.Seria melhor ainda se tivesse exemplos de solos famosos de jazz, nordestino e etc utilizando a Escala Menor Melódica e uma explicação teórica para mostrar em qual Grau do Campo se utiliza, qual a diferença da Bachiana para a Real. Abraço

    • diz

      Com certeza Patrick, o nosso intuito não era de fazer uma matéria completa, e sim seguir o mesmo estilo de post da outras escalas, se você procurar em ‘posts relacionados’ verá que fizemos o mesmo com as outras escalas. Mas valeu pela dica!

Trackbacks

  1. […] Olá, hoje vou postar uns exemplos sobre a escala de blues, mas que é na verdade derivada da escala pentatônica menor. Também já fizemos post sobre a Escala Maior, Pentatônica Maior, Escala Menor, Pentatônica Menor, Menor Harmônica e Melódica Menor. […]

Deixe uma resposta

O seu endereço de email não será publicado Campos obrigatórios são marcados *


quatro × = 4