Categorizado | Teoria Musical, Violão

Dicas e exercícios de violão para iniciantes

Olá! Espero que esse artigo sobre exercícios de violão para iniciantes seja útil para você, pois como o próprio nome diz, são exercícios básicos para iniciantes, mas que ao mesmo tempo impressionará os outros levando a pensar que você já está num nível bem adiantado no aprendizado com violão!

Mesmo não sabendo nada ou quase nada sobre violão, ou até mesmo se nunca pegou em um, esse artigo sobre exercícios de violão para iniciantes com certeza vai te ajudar a obter condições de pelo menos tocar uma música decentemente em pouco tempo. Porém, para estarmos em sintonia, é necessário que você saiba pelo menos um básico, e esse básico inclui:

– Saber ler tablaturas. Além de te ajudar na compreensão da leitura desses exercícios de violão para iniciantes que irei propor, vai te ajudar também pro resto da vida para aprender o que quiser. Já escrevemos sobre isso em artigos anteriores, e clicando aqui você terá uma boa explicação para compreender os elementos básicas para entender uma tablatura.

– Ter o violão afinado. Se você não consegue afinar de ouvido, você pode comprar um afinador que em qualquer loja musical vende, ou então pode afinar online mesmo, clicando aqui nesse link você encontrará um afinador online que já postamos anteriormente. Caso você tenha dúvida e não tem nenhuma noção em como afinar, não se preocupe, também já temos um artigo sobre isso! Aqui nesse artigo tem tudo explicado sobre como afinar seu violão.

Bem agora que estamos com o violão afinado, outra coisa interessante de se aprender também é posição correta do violão. Em primeiro lugar, segure-o de forma correta, com o braço do violão na horizontal e as costas voltadas para você.

exercícios de violão para iniciantes

 

 

 

 

 

 

 

 

Agora ao iniciar esses exercícios de violão para iniciantes, coloque seu polegar no centro da parte traseira do braço de seu violão embaixo do marcador de traste do segundo traste. Agora certifique-se que você pode alcançar os 4 primeiros trastes sem mover sua mão, apenas seus dedos. Faça isso na corda E. Este é um bom exercício para deixar seus dedos mais ágeis.

Exercícios de violão para iniciantes: Agilizando os dedos

e|------------------------------------------------------------
B|--------------------------------------------------1--2--3--4
G|--------------------------------------1--2--3--4------------
D|--------------------------1--2--3--4------------------------
A|--------------1--2--3--4------------------------------------
E|--1--2--3--4------------------------------------------------

---1--2--3--4--4--3--2--1------------------------------------
---------------------------4--3--2--1------------------------
---------------------------------------4--3--2--1------------
---------------------------------------------------4--3--2--1
-------------------------------------------------------------
-------------------------------------------------------------

-------------------------------------------------------------
-------------------------------------------------------------
-------------------------------------------------------------
-------------------------------------------------------------
---4--3--2--1------------------------------------------------
---------------4--3--2--1------------------------------------

Toque até soar natural e fluir naturalmente. Para dar mais dinamismo e manter a motivação é sempre bom tocar alguma música para dar mais ação.

Exercícios de violão para iniciantes: Tocando uma melodia

e|-----------------------------------------------
B|-----------------------------------------------
G|-----------0----------0----------0----------0--
D|--------0-----0----4-----0----5-----5-----5---0
A|-----3-----------5----------7----------7-------
E|-----------------------------------------------

Seguindo o padrão postado cima deve soar como isso aqui:


De forma geral ela pouco varia. Nos próximos artigos vou postar alguns acordes para iniciantes e que sejam úteis em conhecer, juntamente com algumas outras músicas, e claro, colocaria muito outros exercícios de violão para iniciantes, assim como para intermediários e avançados.

Gostou? Compartilhe!

Você pode gostar também:

8 Comentários para “Dicas e exercícios de violão para iniciantes”

  1. DG disse:

    Muito bom vou estudar e tentar aprender!

  2. wudson tenho 09 anos e quero aprender violao disse:

    gostei quando forem postar alguma coisa me avisem pelo meu gmail por favor

  3. larissa disse:

    dsculpa, mas eh q eu nao entendo d jeito nenhum esses acords, oq sao os numeros? :(

    • José disse:

      Larissa, então oh, não sei se vc já aprendeu, mas te qualquer forma vou tentar te explicar, no exercício 1, são os dendos onde vc tem que colocar em casa casa.
      já no segundo exercício, essa numeração é a casa onde vc tem q apertar e tocar, onde estiver 0 vc só tem q tocar acorda sem aperta-la, deu pra entender?

      qualquer coisa manda um e-mail pra mim ai podemos aprender juntos…
      jwsdinho@hotmail.com

  4. Débora disse:

    estou treinando mais nao tenho cordenação motora :(

    os numeros são os dedos

    • José disse:

      Débora, tudo bem? então sobre a coordenação motora vc vai conseguir dominala com o tempo e com pratica no começo é assim mesmo, oh no primeiro exercício é sim é os dedos em cada casa, já no segundo não, no segundo é a casa onde a carda deverá ser apertada.

      assim como eu disse pra Larissa, qualquer coisa manda um e-mail pra mim e podemos ir aprendendo juntos…
      jwsdinho@hotmail.com
      tbm é meu skype.

  5. eu estou treinando,e já comecei a tocar algumas musicas,gostei muito e quero muito ser cantora.

Trackbacks/Pingbacks


Deixar Comentário

Opine Já!

O que você quer ver no Portal Música?

Ver Resultados

Loading ... Loading ...

Estamos no Facebook