Como tocar solos de baixo!

Olá, neste artigo sobre solos de baixo, irei colocar algumas técnicas usadas por baixistas para tocar solos de baixo, e espero que algum dia que você também possa escrever seus próprios solos de baixo. Então vamos lá.

Solos de Baixo Parte I: Sobre as Escalas

A princípio é importante você ter conhecimento sobre escalas. Eu não vou te dizer que todos os solos de baixo têm que ser parte de uma escala, mas eu acho que é importante incluir algumas escalas em seus solos de baixo. Os tipos mais simples de escalas são as escalas maiores e as escalas menores. Eis alguns exemplos de escalas maiores e escalas menores:

C Maior:
G|--------0-2-3-5-|
D|--0-2-3---------|
A|3---------------|
E|----------------|

E Maior:
G|-----------------|
D|-------------1-2-|
A|-------0-2-4-----|
E|-0-2-4-----------|

F Maior:
G|----------------|
D|----------0-2-3-|
A|----0-1-3-------|
E|1-3-------------|

C Menor:
G|--------0-1-3-5-|
D|--0-1-3---------|
A|3---------------|
E|----------------|

E Menor:
G|----------------|
D|------------0-2-|
A|------0-2-3-----|
E|0-2-3-----------|

F Menor:
G|----------------|
D|------------1-3-|
A|------1-3-4-----|
E|1-3-4-----------|

Se for do seus interesse, acesse esses links para maiores detalhes sobre essas escalas: Escala Menor e Escala Maior.

Se você quiser por exemplo, pode ir adicionando algumas notas no meio como nesse exemplo ai da escala C maior:

G|-----------2-4-5-
D|-----2-3-5-------
A|-3-5-------------
E|-----------------

Agora com algumas notas no meio

G|------------2424-5-
D|-----2323-5--------
A|-3-5---------------
E|-------------------

 

Solos de Baixo Parte II: Começando a solar

O jeito mais comum de tocar solos de baixo é descobrir qual é a tônica da música e então emprovise, ou então faça notações a partir da escala sobre a música de fundo. Quando você tocar sobre os acordes você precisará saber quais os acordes estão sendo tocados, pra depois tocar as notas deste acorde. Por exemplo, se você tiver tocando sobre um acorde em C maior, então umas das notas que soarão bem neste acorde serão as notas (c, e,g). Claro que também pode ser tocado outras notas na escala, mas elas não soarão tão atraentes como as notas do acorde.

Agora é onde você pode adicionar alguns elementos em seus solos de baixo, como acordes, velocidade, ou slaps/pops e oitavas. Vamos conferir então!

Solos de baixo: Parte III: Adicionando Acordes

G|------------2424-5-5-4-----5-4---4-
D|-----2323-5--------3-2-4---3-2-4-2-
A|-3-5-------------------2-------2---
E|-----------------------------------

Solos de Baixo Parte IV: Adicionando Velocidade

G|------------2424-5-55553333--------
D|-----2323-5----------------55553-2-
A|-3-5-------------------------------
E|-----------------------------------

Solos de Baixo Parte V:  Adicionando Slaps, Pops e Taps

Em quase todos os solos de baixo que eu já escutei, tem algum slap incluso neles. Caso você seja iniciante e não sabe o que é Slap ou como fazer, consulte este artigo sobre Slaps. Mas continuando o assunto, existem algumas maneiras de incorporar o slap em um solo de baixo. Uma maneira óbvia de fazer, é claro, é tocar um solo normal mas com o slap nele. Outros modos incluem dar uma batidade de leve (tap) com a mão esquerda ( na verdade não é dar um plucking na nota e sim trazer o seu dedo pra baixo e fazer um som) e a outra é dar um pop com o dedo indicador/polegar (puxando a corda pra cima e deixando criar um som cheio de vibração). Essas técnicas vão deixar o som doseu  solo mais rápido, mas vão requerer mais habilidade para deixar o som melhor. No solo a seguir,  está alguns exemplos de um slap/tap/pop em um solo de baixo e menor.

G|----------------------------|
D|-------------2-----2-2------|
A|---------3P2---3P2----------|
E|-0-0-2-2---------------X-3-0|
 S S S S P P T P P S P P


Outro jeito de tocar um slap no solo é tocar as notas em uma escala, mas faça um slap alternadamente entre as notas como nós veremos na tablatura

(desta vez em a menor)
G|-----------------------------------------------|
D|----------------------------2------------------|
A|--0---2---3---2---0---2---3-----0---2---3p2p0--|
E|0---0---0---0---0---0---0-----0---0---0-------0|
 S P S P S P S P S P S P S P P S P S P S P S

Com essa última técnica você pode alterar qualquer nota que você esteja usando por uma nota morta e ainda sim soará legal! Vamos ver então mais um solo legal com Slap e Pop:

G|------------2424-5----5p------------5p----4p-
D|-----2323-5------------------5p--------------
A|-3-5---------------3s------------3s----2s----
E|------------------------3s-------------------

Isso ai galera, espero que este artigo sobre solos de baixo possa ajudar vocês em seus estudos!

Comentários

  1. eliseu diz

    pow jp eu sou iniciante como eu faço para continuar uma nota se alguem me pedir por ex se a musica e em do como eu faço para dar continuidade

    • swestphal diz

      Olá Eliseu

      A improvisação requer prática e sobretudo conhecimento da parte teórica da música. Eu aconselharia você investir um tempo para aprender teoria musical, para entender principalmente as escalas, como são formadas, progressões de acordes etc… Isso te permitirá entender porque tocar uma nota depois de outra (as coisas começarão a fazer sentido pra você).

      Obrigado pela visita!

Deixe uma resposta

O seu endereço de email não será publicado Campos obrigatórios são marcados *


6 × = dezoito